0
SECTION
2
HEADER
9
$ACADVER
1
AC1006
9
$INSBASE
10
0.0
20
0.0
30
0.0
9
$EXTMIN
10
0
20
0
9
$EXTMAX
10
8.000
20
8.000
9
$LUNITS
70
2
9
$VIEWCTR
10
4.000
20
4.000
9
$VIEWSIZE
40
8.000
0
ENDSEC
0
SECTION
2
TABLES
0
TABLE
2
LAYER
70
9
0
LAYER
2
0
70
0
62
7
6
CONTINUOUS
0
LAYER
2
1
70
0
62
7
6
CONTINUOUS
0
LAYER
2
2
70
0
62
6
6
CONTINUOUS
0
LAYER
2
3
70
0
62
6
6
CONTINUOUS
0
ENDTAB
0
ENDSEC
0
SECTION
2
ENTITIES
0
POLYLINE
8
1
6
CONTINUOUS
66
1
70
1
0
VERTEX
8
1
10
5.519
20
3.083
0
VERTEX
8
1
10
5.526
20
3.078
0
VERTEX
8
1
10
5.521
20
3.067
0
VERTEX
8
1
10
5.464
20
3.062
0
VERTEX
8
1
10
5.432
20
3.049
0
VERTEX
8
1
10
5.419
20
3.037
0
VERTEX
8
1
10
5.338
20
2.934
0
VERTEX
8
1
10
5.320
20
2.909
0
VERTEX
8
1
10
5.301
20
2.896
0
VERTEX
8
1
10
5.300
20
2.912
0
VERTEX
8
1
10
5.330
20
2.958
0
VERTEX
8
1
10
5.369
20
3.011
0
VERTEX
8
1
10
5.423
20
3.064
0
VERTEX
8
1
10
5.472
20
3.083
  0
SEQEND
0
POLYLINE
8
1
6
CONTINUOUS
66
1
70
1
0
VERTEX
8
1
10
5.384
20
3.292
0
VERTEX
8
1
10
5.385
20
3.277
0
VERTEX
8
1
10
5.354
20
3.234
0
VERTEX
8
1
10
5.236
20
3.045
0
VERTEX
8
1
10
5.209
20
2.995
0
VERTEX
8
1
10
5.197
20
2.980
0
VERTEX
8
1
10
5.191
20
2.999
0
VERTEX
8
1
10
5.216
20
3.049
0
VERTEX
8
1
10
5.330
20
3.232
0
VERTEX
8
1
10
5.357
20
3.273
0
VERTEX
8
1
10
5.382
20
3.292
  0
SEQEND
0
POLYLINE
8
1
6
CONTINUOUS
66
1
70
1
0
VERTEX
8
1
10
5.818
20
3.311
0
VERTEX
8
1
10
5.828
20
3.279
0
VERTEX
8
1
10
5.870
20
3.136
0
VERTEX
8
1
10
5.877
20
3.106
0
VERTEX
8
1
10
5.891
20
3.092
0
VERTEX
8
1
10
5.935
20
3.107
0
VERTEX
8
1
10
6.027
20
3.142
0
VERTEX
8
1
10
6.158
20
3.190
0
VERTEX
8
1
10
6.376
20
3.261
0
VERTEX
8
1
10
6.416
20
3.271
0
VERTEX
8
1
10
6.517
20
3.280
0
VERTEX
8
1
10
6.580
20
3.271
0
VERTEX
8
1
10
6.923
20
3.260
0
VERTEX
8
1
10
7.163
20
3.267
0
VERTEX
8
1
10
7.222
20
3.271
0
VERTEX
8
1
10
7.232
20
3.269
0
VERTEX
8
1
10
7.238
20
3.260
0
VERTEX
8
1
10
7.217
20
3.254
0
VERTEX
8
1
10
7.157
20
3.249
0
VERTEX
8
1
10
7.011
20
3.243
0
VERTEX
8
1
10
6.923
20
3.240
0
VERTEX
8
1
10
6.900
20
3.229
0
VERTEX
8
1
10
6.805
20
3.237
0
VERTEX
8
1
10
6.711
20
3.243
0
VERTEX
8
1
10
6.681
20
3.259
0
VERTEX
8
1
10
6.639
20
3.249
0
VERTEX
8
1
10
6.509
20
3.262
0
VERTEX
8
1
10
6.378
20
3.243
0
VERTEX
8
1
10
6.132
20
3.159
0
VERTEX
8
1
10
6.009
20
3.119
0
VERTEX
8
1
10
5.905
20
3.072
0
VERTEX
8
1
10
5.896
20
3.052
0
VERTEX
8
1
10
5.918
20
2.988
0
VERTEX
8
1
10
5.993
20
2.732
0
VERTEX
8
1
10
6.017
20
2.658
0
VERTEX
8
1
10
6.019
20
2.646
0
VERTEX
8
1
10
6.011
20
2.635
0
VERTEX
8
1
10
6.008
20
2.635
0
VERTEX
8
1
10
5.993
20
2.664
0
VERTEX
8
1
10
5.963
20
2.762
0
VERTEX
8
1
10
5.836
20
3.180
0
VERTEX
8
1
10
5.801
20
3.293
0
VERTEX
8
1
10
5.795
20
3.318
0
VERTEX
8
1
10
5.802
20
3.331
  0
SEQEND
0
POLYLINE
8
1
6
CONTINUOUS
66
1
70
1
0
VERTEX
8
1
10
5.569
20
3.372
0
VERTEX
8
1
10
5.579
20
3.345
0
VERTEX
8
1
10
5.601
20
3.253
0
VERTEX
8
1
10
5.631
20
3.147
0
VERTEX
8
1
10
5.630
20
3.116
0
VERTEX
8
1
10
5.633
20
3.069
0
VERTEX
8
1
10
5.682
20
3.030
0
VERTEX
8
1
10
5.711
20
2.955
0
VERTEX
8
1
10
5.742
20
2.875
0
VERTEX
8
1
10
5.746
20
2.863
0
VERTEX
8
1
10
5.741
20
2.848
0
VERTEX
8
1
10
5.737
20
2.847
0
VERTEX
8
1
10
5.721
20
2.871
0
VERTEX
8
1
10
5.685
20
2.966
0
VERTEX
8
1
10
5.682
20
2.974
0
VERTEX
8
1
10
5.663
20
3.016
0
VERTEX
8
1
10
5.638
20
3.032
0
VERTEX
8
1
10
5.615
20
3.055
0
VERTEX
8
1
10
5.611
20
3.147
0
VERTEX
8
1
10
5.578
20
3.269
0
VERTEX
8
1
10
5.560
20
3.347
0
VERTEX
8
1
10
5.559
20
3.357
0
VERTEX
8
1
10
5.566
20
3.372
  0
SEQEND
0
POLYLINE
8
1
6
CONTINUOUS
66
1
70
1
0
VERTEX
8
1
10
3.509
20
3.662
0
VERTEX
8
1
10
3.597
20
3.608
0
VERTEX
8
1
10
3.628
20
3.592
0
VERTEX
8
1
10
3.715
20
3.561
0
VERTEX
8
1
10
3.778
20
3.559
0
VERTEX
8
1
10
3.824
20
3.581
0
VERTEX
8
1
10
3.850
20
3.596
0
VERTEX
8
1
10
3.855
20
3.594
0
VERTEX
8
1
10
3.845
20
3.571
0
VERTEX
8
1
10
3.784
20
3.540
0
VERTEX
8
1
10
3.723
20
3.539
0
VERTEX
8
1
10
3.639
20
3.565
0
VERTEX
8
1
10
3.559
20
3.607
0
VERTEX
8
1
10
3.488
20
3.653
0
VERTEX
8
1
10
3.477
20
3.665
0
VERTEX
8
1
10
3.477
20
3.677
  0
SEQEND
0
POLYLINE
8
1
6
CONTINUOUS
66
1
70
1
0
VERTEX
8
1
10
3.280
20
3.802
0
VERTEX
8
1
10
3.276
20
3.782
0
VERTEX
8
1
10
3.226
20
3.729
0
VERTEX
8
1
10
3.183
20
3.671
0
VERTEX
8
1
10
3.172
20
3.619
0
VERTEX
8
1
10
3.194
20
3.482
0
VERTEX
8
1
10
3.203
20
3.424
0
VERTEX
8
1
10
3.247
20
3.206
0
VERTEX
8
1
10
3.263
20
3.150
0
VERTEX
8
1
10
3.279
20
3.060
0
VERTEX
8
1
10
3.276
20
3.029
0
VERTEX
8
1
10
3.265
20
3.014
0
VERTEX
8
1
10
3.260
20
3.058
0
VERTEX
8
1
10
3.258
20
3.081
0
VERTEX
8
1
10
3.226
20
3.206
0
VERTEX
8
1
10
3.217
20
3.240
0
VERTEX
8
1
10
3.172
20
3.490
0
VERTEX
8
1
10
3.155
20
3.586
0
VERTEX
8
1
10
3.158
20
3.660
0
VERTEX
8
1
10
3.174
20
3.699
0
VERTEX
8
1
10
3.239
20
3.773
0
VERTEX
8
1
10
3.275
20
3.803
  0
SEQEND
0
POLYLINE
8
1
6
CONTINUOUS
66
1
70
1
0
VERTEX
8
1
10
6.163
20
3.854
0
VERTEX
8
1
10
6.167
20
3.845
0
VERTEX
8
1
10
6.101
20
3.823
0
VERTEX
8
1
10
6.065
20
3.810
0
VERTEX
8
1
10
5.916
20
3.748
0
VERTEX
8
1
10
5.857
20
3.715
0
VERTEX
8
1
10
5.834
20
3.707
0
VERTEX
8
1
10
5.846
20
3.726
0
VERTEX
8
1
10
5.905
20
3.762
0
VERTEX
8
1
10
5.933
20
3.777
0
VERTEX
8
1
10
6.078
20
3.834
0
VERTEX
8
1
10
6.151
20
3.855
  0
SEQEND
0
POLYLINE
8
1
6
CONTINUOUS
66
1
70
1
0
VERTEX
8
1
10
4.857
20
4.055
0
VERTEX
8
1
10
4.860
20
4.041
0
VERTEX
8
1
10
4.838
20
3.991
0
VERTEX
8
1
10
4.830
20
3.969
0
VERTEX
8
1
10
4.756
20
3.812
0
VERTEX
8
1
10
4.693
20
3.680
0
VERTEX
8
1
10
4.661
20
3.620
0
VERTEX
8
1
10
4.554
20
3.399
0
VERTEX
8
1
10
4.498
20
3.232
0
VERTEX
8
1
10
4.478
20
3.132
0
VERTEX
8
1
10
4.463
20
2.932
0
VERTEX
8
1
10
4.465
20
2.798
0
VERTEX
8
1
10
4.484
20
2.621
0
VERTEX
8
1
10
4.499
20
2.549
0
VERTEX
8
1
10
4.500
20
2.526
0
VERTEX
8
1
10
4.491
20
2.547
0
VERTEX
8
1
10
4.473
20
2.619
0
VERTEX
8
1
10
4.453
20
2.769
0
VERTEX
8
1
10
4.444
20
2.931
0
VERTEX
8
1
10
4.450
20
3.019
0
VERTEX
8
1
10
4.476
20
3.213
0
VERTEX
8
1
10
4.520
20
3.367
0
VERTEX
8
1
10
4.530
20
3.395
0
VERTEX
8
1
10
4.618
20
3.590
0
VERTEX
8
1
10
4.711
20
3.767
0
VERTEX
8
1
10
4.813
20
3.982
0
VERTEX
8
1
10
4.833
20
4.032
0
VERTEX
8
1
10
4.854
20
4.055
  0
SEQEND
0
POLYLINE
8
1
6
CONTINUOUS
66
1
70
1
0
VERTEX
8
1
10
6.279
20
4.122
0
VERTEX
8
1
10
6.287
20
4.088
0
VERTEX
8
1
10
6.306
20
3.934
0
VERTEX
8
1
10
6.313
20
3.901
0
VERTEX
8
1
10
6.303
20
3.886
0
VERTEX
8
1
10
6.282
20
3.890
0
VERTEX
8
1
10
6.266
20
3.928
0
VERTEX
8
1
10
6.243
20
4.088
0
VERTEX
8
1
10
6.246
20
4.117
0
VERTEX
8
1
10
6.260
20
4.138
  0
SEQEND
0
POLYLINE
8
1
6
CONTINUOUS
66
1
70
1
0
VERTEX
8
1
10
5.528
20
4.293
0
VERTEX
8
1
10
5.561
20
4.178
0
VERTEX
8
1
10
5.579
20
4.110
0
VERTEX
8
1
10
5.605
20
4.042
0
VERTEX
8
1
10
5.647
20
4.013
0
VERTEX
8
1
10
5.686
20
3.910
0
VERTEX
8
1
10
5.689
20
3.903
0
VERTEX
8
1
10
5.704
20
3.843
0
VERTEX
8
1
10
5.678
20
3.791
0
VERTEX
8
1
10
5.696
20
3.714
0
VERTEX
8
1
10
5.699
20
3.700
0
VERTEX
8
1
10
5.693
20
3.688
0
VERTEX
8
1
10
5.677
20
3.712
0
VERTEX
8
1
10
5.662
20
3.755
0
VERTEX
8
1
10
5.654
20
3.799
0
VERTEX
8
1
10
5.669
20
3.823
0
VERTEX
8
1
10
5.681
20
3.849
0
VERTEX
8
1
10
5.665
20
3.903
0
VERTEX
8
1
10
5.654
20
3.941
0
VERTEX
8
1
10
5.630
20
3.995
0
VERTEX
8
1
10
5.586
20
4.027
0
VERTEX
8
1
10
5.566
20
4.097
0
VERTEX
8
1
10
5.536
20
4.188
0
VERTEX
8
1
10
5.509
20
4.293
0
VERTEX
8
1
10
5.506
20
4.313
0
VERTEX
8
1
10
5.512
20
4.326
  0
SEQEND
0
POLYLINE
8
1
6
CONTINUOUS
66
1
70
1
0
VERTEX
8
1
10
3.950
20
4.489
0
VERTEX
8
1
10
4.015
20
4.454
0
VERTEX
8
1
10
4.183
20
4.371
0
VERTEX
8
1
10
4.215
20
4.351
0
VERTEX
8
1
10
4.246
20
4.317
0
VERTEX
8
1
10
4.247
20
4.269
0
VERTEX
8
1
10
4.205
20
4.197
0
VERTEX
8
1
10
4.197
20
4.183
0
VERTEX
8
1
10
4.177
20
4.163
0
VERTEX
8
1
10
4.168
20
4.167
0
VERTEX
8
1
10
4.178
20
4.193
0
VERTEX
8
1
10
4.190
20
4.212
0
VERTEX
8
1
10
4.222
20
4.260
0
VERTEX
8
1
10
4.229
20
4.299
0
VERTEX
8
1
10
4.213
20
4.329
0
VERTEX
8
1
10
4.161
20
4.363
0
VERTEX
8
1
10
4.097
20
4.392
0
VERTEX
8
1
10
4.047
20
4.416
0
VERTEX
8
1
10
4.041
20
4.417
0
VERTEX
8
1
10
3.992
20
4.390
0
VERTEX
8
1
10
3.975
20
4.379
0
VERTEX
8
1
10
3.851
20
4.282
0
VERTEX
8
1
10
3.807
20
4.244
0
VERTEX
8
1
10
3.785
20
4.236
0
VERTEX
8
1
10
3.792
20
4.248
0
VERTEX
8
1
10
3.832
20
4.283
0
VERTEX
8
1
10
3.954
20
4.386
0
VERTEX
8
1
10
3.986
20
4.405
0
VERTEX
8
1
10
4.009
20
4.427
0
VERTEX
8
1
10
4.006
20
4.436
0
VERTEX
8
1
10
3.971
20
4.459
0
VERTEX
8
1
10
3.944
20
4.471
0
VERTEX
8
1
10
3.933
20
4.480
0
VERTEX
8
1
10
3.937
20
4.488
  0
SEQEND
0
POLYLINE
8
1
6
CONTINUOUS
66
1
70
1
0
VERTEX
8
1
10
3.811
20
4.784
0
VERTEX
8
1
10
3.845
20
4.759
0
VERTEX
8
1
10
4.024
20
4.669
0
VERTEX
8
1
10
4.157
20
4.608
0
VERTEX
8
1
10
4.680
20
4.435
0
VERTEX
8
1
10
4.842
20
4.389
0
VERTEX
8
1
10
4.882
20
4.373
0
VERTEX
8
1
10
4.882
20
4.360
0
VERTEX
8
1
10
4.833
20
4.373
0
VERTEX
8
1
10
4.667
20
4.419
0
VERTEX
8
1
10
4.199
20
4.573
0
VERTEX
8
1
10
4.007
20
4.658
0
VERTEX
8
1
10
3.830
20
4.746
0
VERTEX
8
1
10
3.788
20
4.776
0
VERTEX
8
1
10
3.786
20
4.788
  0
SEQEND
0
POLYLINE
8
1
6
CONTINUOUS
66
1
70
1
0
VERTEX
8
1
10
1.925
20
4.797
0
VERTEX
8
1
10
1.948
20
4.783
0
VERTEX
8
1
10
2.096
20
4.688
0
VERTEX
8
1
10
2.257
20
4.593
0
VERTEX
8
1
10
2.649
20
4.399
0
VERTEX
8
1
10
2.792
20
4.354
0
VERTEX
8
1
10
2.828
20
4.342
0
VERTEX
8
1
10
2.830
20
4.330
0
VERTEX
8
1
10
2.827
20
4.328
0
VERTEX
8
1
10
2.781
20
4.335
0
VERTEX
8
1
10
2.638
20
4.382
0
VERTEX
8
1
10
2.510
20
4.448
0
VERTEX
8
1
10
2.307
20
4.547
0
VERTEX
8
1
10
2.085
20
4.673
0
VERTEX
8
1
10
1.938
20
4.768
0
VERTEX
8
1
10
1.903
20
4.794
0
VERTEX
8
1
10
1.898
20
4.806
  0
SEQEND
0
POLYLINE
8
1
6
CONTINUOUS
66
1
70
1
0
VERTEX
8
1
10
7.157
20
4.911
0
VERTEX
8
1
10
7.171
20
4.895
0
VERTEX
8
1
10
7.172
20
4.890
0
VERTEX
8
1
10
7.157
20
4.865
0
VERTEX
8
1
10
7.061
20
4.826
0
VERTEX
8
1
10
6.950
20
4.824
0
VERTEX
8
1
10
6.818
20
4.830
0
VERTEX
8
1
10
6.696
20
4.833
0
VERTEX
8
1
10
6.669
20
4.839
0
VERTEX
8
1
10
6.665
20
4.849
0
VERTEX
8
1
10
6.704
20
4.852
0
VERTEX
8
1
10
6.814
20
4.850
0
VERTEX
8
1
10
6.971
20
4.843
0
VERTEX
8
1
10
7.071
20
4.851
0
VERTEX
8
1
10
7.140
20
4.877
0
VERTEX
8
1
10
7.154
20
4.910
  0
SEQEND
0
POLYLINE
8
1
6
CONTINUOUS
66
1
70
1
0
VERTEX
8
1
10
4.980
20
5.187
0
VERTEX
8
1
10
5.058
20
5.169
0
VERTEX
8
1
10
5.090
20
5.160
0
VERTEX
8
1
10
5.153
20
5.133
0
VERTEX
8
1
10
5.183
20
5.120
0
VERTEX
8
1
10
5.197
20
5.108
0
VERTEX
8
1
10
5.195
20
5.102
0
VERTEX
8
1
10
5.174
20
5.102
0
VERTEX
8
1
10
5.148
20
5.113
0
VERTEX
8
1
10
5.121
20
5.128
0
VERTEX
8
1
10
5.035
20
5.160
0
VERTEX
8
1
10
4.966
20
5.166
0
VERTEX
8
1
10
4.949
20
5.165
0
VERTEX
8
1
10
4.912
20
5.153
0
VERTEX
8
1
10
4.905
20
5.132
0
VERTEX
8
1
10
4.933
20
5.062
0
VERTEX
8
1
10
5.002
20
4.973
0
VERTEX
8
1
10
5.104
20
4.884
0
VERTEX
8
1
10
5.219
20
4.825
0
VERTEX
8
1
10
5.403
20
4.765
0
VERTEX
8
1
10
5.630
20
4.712
0
VERTEX
8
1
10
5.807
20
4.677
0
VERTEX
8
1
10
5.853
20
4.662
0
VERTEX
8
1
10
5.855
20
4.653
0
VERTEX
8
1
10
5.851
20
4.651
0
VERTEX
8
1
10
5.798
20
4.660
0
VERTEX
8
1
10
5.645
20
4.690
0
VERTEX
8
1
10
5.511
20
4.719
0
VERTEX
8
1
10
5.298
20
4.774
0
VERTEX
8
1
10
5.157
20
4.833
0
VERTEX
8
1
10
5.099
20
4.864
0
VERTEX
8
1
10
5.022
20
4.919
0
VERTEX
8
1
10
4.950
20
5.001
0
VERTEX
8
1
10
4.897
20
5.091
0
VERTEX
8
1
10
4.883
20
5.144
0
VERTEX
8
1
10
4.896
20
5.170
0
VERTEX
8
1
10
4.905
20
5.176
0
VERTEX
8
1
10
4.966
20
5.187
  0
SEQEND
0
POLYLINE
8
1
6
CONTINUOUS
66
1
70
1
0
VERTEX
8
1
10
4.453
20
5.393
0
VERTEX
8
1
10
4.562
20
5.381
0
VERTEX
8
1
10
4.750
20
5.349
0
VERTEX
8
1
10
4.976
20
5.295
0
VERTEX
8
1
10
5.109
20
5.256
0
VERTEX
8
1
10
5.144
20
5.244
0
VERTEX
8
1
10
5.149
20
5.237
0
VERTEX
8
1
10
5.104
20
5.241
0
VERTEX
8
1
10
4.974
20
5.277
0
VERTEX
8
1
10
4.722
20
5.337
0
VERTEX
8
1
10
4.528
20
5.367
0
VERTEX
8
1
10
4.434
20
5.377
0
VERTEX
8
1
10
4.409
20
5.389
0
VERTEX
8
1
10
4.411
20
5.398
  0
SEQEND
0
POLYLINE
8
1
6
CONTINUOUS
66
1
70
1
0
VERTEX
8
1
10
6.397
20
5.440
0
VERTEX
8
1
10
6.494
20
5.431
0
VERTEX
8
1
10
6.709
20
5.407
0
VERTEX
8
1
10
6.814
20
5.394
0
VERTEX
8
1
10
6.833
20
5.387
0
VERTEX
8
1
10
6.832
20
5.378
0
VERTEX
8
1
10
6.801
20
5.376
0
VERTEX
8
1
10
6.702
20
5.388
0
VERTEX
8
1
10
6.391
20
5.422
0
VERTEX
8
1
10
6.369
20
5.424
0
VERTEX
8
1
10
6.318
20
5.415
0
VERTEX
8
1
10
6.316
20
5.414
0
VERTEX
8
1
10
6.298
20
5.413
0
VERTEX
8
1
10
6.297
20
5.418
0
VERTEX
8
1
10
6.312
20
5.432
0
VERTEX
8
1
10
6.341
20
5.443
  0
SEQEND
0
POLYLINE
8
1
6
CONTINUOUS
66
1
70
1
0
VERTEX
8
1
10
5.394
20
5.569
0
VERTEX
8
1
10
5.470
20
5.519
0
VERTEX
8
1
10
5.792
20
5.296
0
VERTEX
8
1
10
5.870
20
5.232
0
VERTEX
8
1
10
5.882
20
5.216
0
VERTEX
8
1
10
5.883
20
5.203
0
VERTEX
8
1
10
5.857
20
5.223
0
VERTEX
8
1
10
5.777
20
5.283
0
VERTEX
8
1
10
5.455
20
5.507
0
VERTEX
8
1
10
5.380
20
5.556
0
VERTEX
8
1
10
5.367
20
5.570
0
VERTEX
8
1
10
5.367
20
5.582
  0
SEQEND
0
POLYLINE
8
1
6
CONTINUOUS
66
1
70
1
0
VERTEX
8
1
10
1.221
20
5.760
0
VERTEX
8
1
10
1.224
20
5.728
0
VERTEX
8
1
10
1.231
20
5.664
0
VERTEX
8
1
10
1.248
20
5.608
0
VERTEX
8
1
10
1.282
20
5.572
0
VERTEX
8
1
10
1.656
20
5.331
0
VERTEX
8
1
10
2.012
20
5.105
0
VERTEX
8
1
10
2.190
20
5.001
0
VERTEX
8
1
10
2.233
20
4.978
0
VERTEX
8
1
10
2.238
20
4.974
0
VERTEX
8
1
10
2.238
20
4.964
0
VERTEX
8
1
10
2.176
20
4.991
0
VERTEX
8
1
10
1.999
20
5.093
0
VERTEX
8
1
10
1.654
20
5.308
0
VERTEX
8
1
10
1.427
20
5.453
0
VERTEX
8
1
10
1.265
20
5.558
0
VERTEX
8
1
10
1.228
20
5.601
0
VERTEX
8
1
10
1.208
20
5.652
0
VERTEX
8
1
10
1.205
20
5.721
0
VERTEX
8
1
10
1.197
20
5.740
0
VERTEX
8
1
10
1.192
20
5.773
0
VERTEX
8
1
10
1.208
20
5.783
  0
SEQEND
0
POLYLINE
8
1
6
CONTINUOUS
66
1
70
1
0
VERTEX
8
1
10
5.832
20
5.831
0
VERTEX
8
1
10
5.860
20
5.795
0
VERTEX
8
1
10
5.917
20
5.730
0
VERTEX
8
1
10
5.965
20
5.665
0
VERTEX
8
1
10
6.121
20
5.470
0
VERTEX
8
1
10
6.207
20
5.330
0
VERTEX
8
1
10
6.221
20
5.301
0
VERTEX
8
1
10
6.277
20
5.141
0
VERTEX
8
1
10
6.307
20
5.004
0
VERTEX
8
1
10
6.315
20
4.978
0
VERTEX
8
1
10
6.315
20
4.960
0
VERTEX
8
1
10
6.306
20
4.980
0
VERTEX
8
1
10
6.295
20
4.999
0
VERTEX
8
1
10
6.263
20
5.128
0
VERTEX
8
1
10
6.249
20
5.176
0
VERTEX
8
1
10
6.191
20
5.316
0
VERTEX
8
1
10
6.109
20
5.452
0
VERTEX
8
1
10
5.949
20
5.654
0
VERTEX
8
1
10
5.845
20
5.784
0
VERTEX
8
1
10
5.824
20
5.815
0
VERTEX
8
1
10
5.822
20
5.830
  0
SEQEND
0
POLYLINE
8
1
6
CONTINUOUS
66
1
70
1
0
VERTEX
8
1
10
5.233
20
6.306
0
VERTEX
8
1
10
5.283
20
6.250
0
VERTEX
8
1
10
5.298
20
6.226
0
VERTEX
8
1
10
5.297
20
6.176
0
VERTEX
8
1
10
5.270
20
6.013
0
VERTEX
8
1
10
5.262
20
5.957
0
VERTEX
8
1
10
5.251
20
5.940
0
VERTEX
8
1
10
5.231
20
5.954
0
VERTEX
8
1
10
5.220
20
5.966
0
VERTEX
8
1
10
5.198
20
6.010
0
VERTEX
8
1
10
5.186
20
6.053
0
VERTEX
8
1
10
5.185
20
6.104
0
VERTEX
8
1
10
5.222
20
6.135
0
VERTEX
8
1
10
5.226
20
6.144
0
VERTEX
8
1
10
5.226
20
6.221
0
VERTEX
8
1
10
5.213
20
6.296
0
VERTEX
8
1
10
5.212
20
6.303
0
VERTEX
8
1
10
5.214
20
6.322
  0
SEQEND
0
POLYLINE
8
1
6
CONTINUOUS
66
1
70
1
0
VERTEX
8
1
10
5.800
20
6.296
0
VERTEX
8
1
10
5.873
20
6.206
0
VERTEX
8
1
10
5.910
20
6.175
0
VERTEX
8
1
10
5.925
20
6.174
0
VERTEX
8
1
10
5.966
20
6.207
0
VERTEX
8
1
10
5.990
20
6.226
0
VERTEX
8
1
10
6.050
20
6.249
0
VERTEX
8
1
10
6.121
20
6.256
0
VERTEX
8
1
10
6.250
20
6.247
0
VERTEX
8
1
10
6.433
20
6.209
0
VERTEX
8
1
10
6.536
20
6.191
0
VERTEX
8
1
10
6.559
20
6.186
0
VERTEX
8
1
10
6.562
20
6.177
0
VERTEX
8
1
10
6.528
20
6.172
0
VERTEX
8
1
10
6.423
20
6.189
0
VERTEX
8
1
10
6.297
20
6.212
0
VERTEX
8
1
10
6.144
20
6.234
0
VERTEX
8
1
10
6.053
20
6.227
0
VERTEX
8
1
10
6.036
20
6.222
0
VERTEX
8
1
10
5.983
20
6.192
0
VERTEX
8
1
10
5.935
20
6.152
0
VERTEX
8
1
10
5.905
20
6.151
0
VERTEX
8
1
10
5.844
20
6.199
0
VERTEX
8
1
10
5.783
20
6.287
0
VERTEX
8
1
10
5.756
20
6.332
0
VERTEX
8
1
10
5.762
20
6.341
  0
SEQEND
0
POLYLINE
8
1
6
CONTINUOUS
66
1
70
1
0
VERTEX
8
1
10
5.062
20
6.882
0
VERTEX
8
1
10
5.170
20
6.841
0
VERTEX
8
1
10
5.223
20
6.822
0
VERTEX
8
1
10
5.317
20
6.779
0
VERTEX
8
1
10
5.395
20
6.708
0
VERTEX
8
1
10
5.434
20
6.672
0
VERTEX
8
1
10
5.463
20
6.630
0
VERTEX
8
1
10
5.457
20
6.576
0
VERTEX
8
1
10
5.454
20
6.489
0
VERTEX
8
1
10
5.452
20
6.420
0
VERTEX
8
1
10
5.467
20
6.356
0
VERTEX
8
1
10
5.491
20
6.328
0
VERTEX
8
1
10
5.490
20
6.319
0
VERTEX
8
1
10
5.473
20
6.321
0
VERTEX
8
1
10
5.448
20
6.352
0
VERTEX
8
1
10
5.438
20
6.383
0
VERTEX
8
1
10
5.434
20
6.485
0
VERTEX
8
1
10
5.437
20
6.572
0
VERTEX
8
1
10
5.443
20
6.622
0
VERTEX
8
1
10
5.438
20
6.635
0
VERTEX
8
1
10
5.376
20
6.696
0
VERTEX
8
1
10
5.304
20
6.762
0
VERTEX
8
1
10
5.274
20
6.780
0
VERTEX
8
1
10
5.121
20
6.839
0
VERTEX
8
1
10
5.033
20
6.874
0
VERTEX
8
1
10
5.013
20
6.889
0
VERTEX
8
1
10
5.019
20
6.897
  0
SEQEND
0
POLYLINE
8
1
6
CONTINUOUS
66
1
70
1
0
VERTEX
8
1
10
5.297
20
7.068
0
VERTEX
8
1
10
5.309
20
7.050
0
VERTEX
8
1
10
5.316
20
7.005
0
VERTEX
8
1
10
5.336
20
6.961
0
VERTEX
8
1
10
5.501
20
6.783
0
VERTEX
8
1
10
5.542
20
6.740
0
VERTEX
8
1
10
5.579
20
6.682
0
VERTEX
8
1
10
5.611
20
6.583
0
VERTEX
8
1
10
5.618
20
6.566
0
VERTEX
8
1
10
5.615
20
6.550
0
VERTEX
8
1
10
5.610
20
6.549
0
VERTEX
8
1
10
5.594
20
6.572
0
VERTEX
8
1
10
5.560
20
6.670
0
VERTEX
8
1
10
5.550
20
6.692
0
VERTEX
8
1
10
5.482
20
6.772
0
VERTEX
8
1
10
5.431
20
6.824
0
VERTEX
8
1
10
5.317
20
6.950
0
VERTEX
8
1
10
5.299
20
6.983
0
VERTEX
8
1
10
5.290
20
7.039
0
VERTEX
8
1
10
5.290
20
7.045
0
VERTEX
8
1
10
5.294
20
7.067
  0
SEQEND
0
POLYLINE
8
1
6
CONTINUOUS
66
1
70
1
0
VERTEX
8
1
10
4.760
20
7.507
0
VERTEX
8
1
10
4.881
20
7.484
0
VERTEX
8
1
10
5.036
20
7.450
0
VERTEX
8
1
10
5.174
20
7.405
0
VERTEX
8
1
10
5.264
20
7.354
0
VERTEX
8
1
10
5.283
20
7.338
0
VERTEX
8
1
10
5.334
20
7.276
0
VERTEX
8
1
10
5.344
20
7.251
0
VERTEX
8
1
10
5.363
20
7.224
0
VERTEX
8
1
10
5.395
20
7.222
0
VERTEX
8
1
10
5.504
20
7.216
0
VERTEX
8
1
10
5.617
20
7.205
0
VERTEX
8
1
10
5.865
20
7.166
0
VERTEX
8
1
10
5.947
20
7.147
0
VERTEX
8
1
10
6.006
20
7.119
0
VERTEX
8
1
10
6.056
20
7.077
0
VERTEX
8
1
10
6.250
20
6.874
0
VERTEX
8
1
10
6.330
20
6.786
0
VERTEX
8
1
10
6.604
20
6.467
0
VERTEX
8
1
10
6.745
20
6.261
0
VERTEX
8
1
10
6.780
20
6.204
0
VERTEX
8
1
10
6.808
20
6.176
0
VERTEX
8
1
10
6.821
20
6.193
0
VERTEX
8
1
10
6.871
20
6.240
0
VERTEX
8
1
10
6.977
20
6.327
0
VERTEX
8
1
10
7.025
20
6.389
0
VERTEX
8
1
10
7.039
20
6.457
0
VERTEX
8
1
10
7.055
20
6.502
0
VERTEX
8
1
10
7.134
20
6.584
0
VERTEX
8
1
10
7.169
20
6.625
0
VERTEX
8
1
10
7.267
20
6.769
0
VERTEX
8
1
10
7.301
20
6.888
0
VERTEX
8
1
10
7.329
20
6.927
0
VERTEX
8
1
10
7.371
20
6.949
0
VERTEX
8
1
10
7.453
20
6.956
0
VERTEX
8
1
10
7.703
20
6.930
0
VERTEX
8
1
10
7.777
20
6.924
0
VERTEX
8
1
10
7.840
20
6.907
0
VERTEX
8
1
10
7.866
20
6.877
0
VERTEX
8
1
10
7.878
20
6.819
0
VERTEX
8
1
10
7.876
20
6.763
0
VERTEX
8
1
10
7.845
20
6.613
0
VERTEX
8
1
10
7.827
20
6.570
0
VERTEX
8
1
10
7.794
20
6.535
0
VERTEX
8
1
10
7.745
20
6.514
0
VERTEX
8
1
10
7.617
20
6.492
0
VERTEX
8
1
10
7.424
20
6.461
0
VERTEX
8
1
10
7.337
20
6.449
0
VERTEX
8
1
10
7.332
20
6.448
0
VERTEX
8
1
10
7.299
20
6.438
0
VERTEX
8
1
10
7.284
20
6.411
0
VERTEX
8
1
10
7.220
20
6.306
0
VERTEX
8
1
10
7.187
20
6.267
0
VERTEX
8
1
10
7.137
20
6.213
0
VERTEX
8
1
10
7.082
20
6.022
0
VERTEX
8
1
10
7.039
20
5.926
0
VERTEX
8
1
10
7.026
20
5.910
0
VERTEX
8
1
10
7.013
20
5.884
0
VERTEX
8
1
10
7.054
20
5.808
0
VERTEX
8
1
10
7.141
20
5.597
0
VERTEX
8
1
10
7.169
20
5.508
0
VERTEX
8
1
10
7.218
20
5.303
0
VERTEX
8
1
10
7.238
20
5.120
0
VERTEX
8
1
10
7.234
20
4.949
0
VERTEX
8
1
10
7.227
20
4.883
0
VERTEX
8
1
10
7.196
20
4.733
0
VERTEX
8
1
10
7.150
20
4.617
0
VERTEX
8
1
10
7.142
20
4.603
0
VERTEX
8
1
10
7.092
20
4.541
0
VERTEX
8
1
10
7.041
20
4.509
0
VERTEX
8
1
10
7.029
20
4.505
0
VERTEX
8
1
10
6.929
20
4.508
0
VERTEX
8
1
10
6.658
20
4.521
0
VERTEX
8
1
10
6.579
20
4.529
0
VERTEX
8
1
10
6.519
20
4.522
0
VERTEX
8
1
10
6.511
20
4.516
0
VERTEX
8
1
10
6.492
20
4.465
0
VERTEX
8
1
10
6.475
20
4.370
0
VERTEX
8
1
10
6.451
20
4.308
0
VERTEX
8
1
10
6.429
20
4.268
0
VERTEX
8
1
10
6.414
20
4.258
0
VERTEX
8
1
10
6.391
20
4.236
0
VERTEX
8
1
10
6.404
20
4.171
0
VERTEX
8
1
10
6.422
20
4.080
0
VERTEX
8
1
10
6.454
20
4.038
0
VERTEX
8
1
10
6.470
20
3.984
0
VERTEX
8
1
10
6.480
20
3.920
0
VERTEX
8
1
10
6.496
20
3.893
0
VERTEX
8
1
10
6.505
20
3.889
0
VERTEX
8
1
10
6.597
20
3.882
0
VERTEX
8
1
10
6.623
20
3.880
0
VERTEX
8
1
10
6.786
20
3.853
0
VERTEX
8
1
10
6.978
20
3.790
0
VERTEX
8
1
10
7.129
20
3.716
0
VERTEX
8
1
10
7.272
20
3.618
0
VERTEX
8
1
10
7.338
20
3.568
0
VERTEX
8
1
10
7.404
20
3.504
0
VERTEX
8
1
10
7.408
20
3.489
0
VERTEX
8
1
10
7.429
20
3.480
0
VERTEX
8
1
10
7.487
20
3.414
0
VERTEX
8
1
10
7.520
20
3.356
0
VERTEX
8
1
10
7.523
20
3.312
0
VERTEX
8
1
10
7.510
20
3.293
0
VERTEX
8
1
10
7.442
20
3.276
0
VERTEX
8
1
10
7.422
20
3.270
0
VERTEX
8
1
10
7.412
20
3.258
0
VERTEX
8
1
10
7.452
20
3.206
0
VERTEX
8
1
10
7.542
20
3.064
0
VERTEX
8
1
10
7.657
20
2.841
0
VERTEX
8
1
10
7.740
20
2.625
0
VERTEX
8
1
10
7.813
20
2.339
0
VERTEX
8
1
10
7.843
20
2.122
0
VERTEX
8
1
10
7.852
20
1.902
0
VERTEX
8
1
10
7.838
20
1.682
0
VERTEX
8
1
10
7.802
20
1.482
0
VERTEX
8
1
10
7.745
20
1.288
0
VERTEX
8
1
10
7.663
20
1.101
0
VERTEX
8
1
10
7.563
20
0.938
0
VERTEX
8
1
10
7.459
20
0.810
0
VERTEX
8
1
10
7.338
20
0.698
0
VERTEX
8
1
10
7.210
20
0.609
0
VERTEX
8
1
10
7.079
20
0.545
0
VERTEX
8
1
10
6.938
20
0.502
0
VERTEX
8
1
10
6.736
20
0.479
0
VERTEX
8
1
10
6.578
20
0.489
0
VERTEX
8
1
10
6.425
20
0.520
0
VERTEX
8
1
10
6.267
20
0.576
0
VERTEX
8
1
10
6.107
20
0.657
0
VERTEX
8
1
10
5.950
20
0.765
0
VERTEX
8
1
10
5.828
20
0.872
0
VERTEX
8
1
10
5.691
20
1.019
0
VERTEX
8
1
10
5.564
20
1.190
0
VERTEX
8
1
10
5.456
20
1.373
0
VERTEX
8
1
10
5.362
20
1.577
0
VERTEX
8
1
10
5.288
20
1.799
0
VERTEX
8
1
10
5.272
20
1.860
0
VERTEX
8
1
10
5.226
20
2.091
0
VERTEX
8
1
10
5.205
20
2.314
0
VERTEX
8
1
10
5.205
20
2.479
0
VERTEX
8
1
10
5.208
20
2.508
0
VERTEX
8
1
10
5.206
20
2.535
0
VERTEX
8
1
10
5.184
20
2.535
0
VERTEX
8
1
10
5.180
20
2.535
0
VERTEX
8
1
10
5.143
20
2.555
0
VERTEX
8
1
10
5.127
20
2.596
0
VERTEX
8
1
10
5.132
20
2.682
0
VERTEX
8
1
10
5.134
20
2.709
0
VERTEX
8
1
10
5.134
20
2.724
0
VERTEX
8
1
10
5.129
20
2.710
0
VERTEX
8
1
10
5.122
20
2.662
0
VERTEX
8
1
10
5.115
20
2.557
0
VERTEX
8
1
10
5.109
20
2.455
0
VERTEX
8
1
10
5.108
20
2.380
0
VERTEX
8
1
10
5.110
20
2.197
0
VERTEX
8
1
10
5.114
20
2.129
0
VERTEX
8
1
10
5.104
20
2.049
0
VERTEX
8
1
10
5.078
20
1.999
0
VERTEX
8
1
10
5.008
20
1.954
0
VERTEX
8
1
10
4.892
20
1.919
0
VERTEX
8
1
10
4.849
20
1.910
0
VERTEX
8
1
10
4.703
20
1.905
0
VERTEX
8
1
10
4.542
20
1.913
0
VERTEX
8
1
10
4.339
20
1.943
0
VERTEX
8
1
10
4.160
20
1.978
0
VERTEX
8
1
10
4.117
20
1.991
0
VERTEX
8
1
10
3.839
20
2.104
0
VERTEX
8
1
10
3.517
20
2.239
0
VERTEX
8
1
10
3.469
20
2.250
0
VERTEX
8
1
10
3.363
20
2.305
0
VERTEX
8
1
10
3.139
20
2.400
0
VERTEX
8
1
10
3.125
20
2.405
0
VERTEX
8
1
10
3.029
20
2.405
0
VERTEX
8
1
10
2.982
20
2.406
0
VERTEX
8
1
10
2.867
20
2.426
0
VERTEX
8
1
10
2.810
20
2.446
0
VERTEX
8
1
10
2.621
20
2.546
0
VERTEX
8
1
10
2.565
20
2.583
0
VERTEX
8
1
10
2.561
20
2.583
0
VERTEX
8
1
10
2.531
20
2.540
0
VERTEX
8
1
10
2.512
20
2.511
0
VERTEX
8
1
10
2.424
20
2.408
0
VERTEX
8
1
10
2.278
20
2.284
0
VERTEX
8
1
10
2.159
20
2.211
0
VERTEX
8
1
10
2.039
20
2.163
0
VERTEX
8
1
10
1.908
20
2.137
0
VERTEX
8
1
10
1.837
20
2.140
0
VERTEX
8
1
10
1.674
20
2.152
0
VERTEX
8
1
10
1.564
20
2.182
0
VERTEX
8
1
10
1.498
20
2.225
0
VERTEX
8
1
10
1.423
20
2.263
0
VERTEX
8
1
10
1.321
20
2.341
0
VERTEX
8
1
10
1.226
20
2.442
0
VERTEX
8
1
10
1.155
20
2.546
0
VERTEX
8
1
10
1.039
20
2.773
0
VERTEX
8
1
10
1.018
20
2.821
0
VERTEX
8
1
10
0.943
20
3.031
0
VERTEX
8
1
10
0.915
20
3.112
0
VERTEX
8
1
10
0.889
20
3.377
0
VERTEX
8
1
10
0.887
20
3.445
0
VERTEX
8
1
10
0.887
20
3.475
0
VERTEX
8
1
10
0.847
20
3.497
0
VERTEX
8
1
10
0.729
20
3.565
0
VERTEX
8
1
10
0.528
20
3.692
0
VERTEX
8
1
10
0.308
20
3.845
0
VERTEX
8
1
10
0.258
20
3.880
0
VERTEX
8
1
10
0.189
20
3.939
0
VERTEX
8
1
10
0.163
20
3.984
0
VERTEX
8
1
10
0.163
20
4.030
0
VERTEX
8
1
10
0.187
20
4.101
0
VERTEX
8
1
10
0.237
20
4.186
0
VERTEX
8
1
10
0.249
20
4.200
0
VERTEX
8
1
10
0.336
20
4.274
0
VERTEX
8
1
10
0.402
20
4.317
0
VERTEX
8
1
10
0.468
20
4.340
0
VERTEX
8
1
10
0.527
20
4.338
0
VERTEX
8
1
10
0.540
20
4.334
0
VERTEX
8
1
10
0.624
20
4.282
0
VERTEX
8
1
10
0.775
20
4.186
0
VERTEX
8
1
10
0.897
20
4.101
0
VERTEX
8
1
10
0.919
20
4.081
0
VERTEX
8
1
10
0.939
20
4.072
0
VERTEX
8
1
10
0.958
20
4.119
0
VERTEX
8
1
10
1.012
20
4.247
0
VERTEX
8
1
10
1.053
20
4.315
0
VERTEX
8
1
10
1.141
20
4.419
0
VERTEX
8
1
10
1.282
20
4.539
0
VERTEX
8
1
10
1.317
20
4.565
0
VERTEX
8
1
10
1.428
20
4.626
0
VERTEX
8
1
10
1.532
20
4.658
0
VERTEX
8
1
10
1.602
20
4.665
0
VERTEX
8
1
10
1.610
20
4.665
0
VERTEX
8
1
10
1.624
20
4.673
0
VERTEX
8
1
10
1.623
20
4.679
0
VERTEX
8
1
10
1.580
20
4.725
0
VERTEX
8
1
10
1.446
20
4.871
0
VERTEX
8
1
10
1.293
20
5.016
0
VERTEX
8
1
10
1.080
20
5.166
0
VERTEX
8
1
10
0.958
20
5.262
0
VERTEX
8
1
10
0.922
20
5.288
0
VERTEX
8
1
10
0.836
20
5.344
0
VERTEX
8
1
10
0.773
20
5.366
0
VERTEX
8
1
10
0.743
20
5.389
0
VERTEX
8
1
10
0.740
20
5.396
0
VERTEX
8
1
10
0.744
20
5.454
0
VERTEX
8
1
10
0.749
20
5.482
0
VERTEX
8
1
10
0.770
20
5.536
0
VERTEX
8
1
10
0.779
20
5.546
0
VERTEX
8
1
10
0.880
20
5.623
0
VERTEX
8
1
10
0.951
20
5.677
0
VERTEX
8
1
10
0.970
20
5.711
0
VERTEX
8
1
10
0.987
20
5.861
0
VERTEX
8
1
10
1.002
20
5.952
0
VERTEX
8
1
10
0.998
20
5.988
0
VERTEX
8
1
10
0.998
20
6.040
0
VERTEX
8
1
10
1.019
20
6.068
0
VERTEX
8
1
10
1.041
20
6.079
0
VERTEX
8
1
10
1.126
20
6.091
0
VERTEX
8
1
10
1.316
20
6.098
0
VERTEX
8
1
10
1.591
20
6.084
0
VERTEX
8
1
10
1.735
20
6.068
0
VERTEX
8
1
10
1.826
20
6.039
0
VERTEX
8
1
10
1.969
20
5.918
0
VERTEX
8
1
10
2.104
20
5.827
0
VERTEX
8
1
10
2.247
20
5.762
0
VERTEX
8
1
10
2.280
20
5.752
0
VERTEX
8
1
10
2.434
20
5.730
0
VERTEX
8
1
10
2.604
20
5.706
0
VERTEX
8
1
10
2.648
20
5.700
0
VERTEX
8
1
10
2.731
20
5.676
0
VERTEX
8
1
10
2.812
20
5.626
0
VERTEX
8
1
10
2.949
20
5.497
0
VERTEX
8
1
10
3.022
20
5.432
0
VERTEX
8
1
10
3.069
20
5.416
0
VERTEX
8
1
10
3.078
20
5.417
0
VERTEX
8
1
10
3.110
20
5.443
0
VERTEX
8
1
10
3.184
20
5.519
0
VERTEX
8
1
10
3.282
20
5.626
0
VERTEX
8
1
10
3.422
20
5.759
0
VERTEX
8
1
10
3.513
20
5.824
0
VERTEX
8
1
10
3.556
20
5.849
0
VERTEX
8
1
10
3.546
20
5.887
0
VERTEX
8
1
10
3.542
20
5.906
0
VERTEX
8
1
10
3.544
20
5.950
0
VERTEX
8
1
10
3.567
20
5.979
0
VERTEX
8
1
10
3.639
20
6.013
0
VERTEX
8
1
10
3.794
20
6.040
0
VERTEX
8
1
10
4.137
20
6.101
0
VERTEX
8
1
10
4.261
20
6.127
0
VERTEX
8
1
10
4.274
20
6.129
0
VERTEX
8
1
10
4.316
20
6.143
0
VERTEX
8
1
10
4.346
20
6.215
0
VERTEX
8
1
10
4.369
20
6.237
0
VERTEX
8
1
10
4.420
20
6.254
0
VERTEX
8
1
10
4.594
20
6.277
0
VERTEX
8
1
10
4.697
20
6.300
0
VERTEX
8
1
10
4.716
20
6.309
0
VERTEX
8
1
10
4.775
20
6.369
0
VERTEX
8
1
10
4.823
20
6.409
0
VERTEX
8
1
10
4.877
20
6.417
0
VERTEX
8
1
10
5.006
20
6.428
0
VERTEX
8
1
10
5.024
20
6.428
0
VERTEX
8
1
10
5.063
20
6.434
0
VERTEX
8
1
10
5.065
20
6.436
0
VERTEX
8
1
10
5.056
20
6.449
0
VERTEX
8
1
10
5.008
20
6.480
0
VERTEX
8
1
10
4.867
20
6.558
0
VERTEX
8
1
10
4.838
20
6.573
0
VERTEX
8
1
10
4.807
20
6.602
0
VERTEX
8
1
10
4.786
20
6.655
0
VERTEX
8
1
10
4.775
20
6.751
0
VERTEX
8
1
10
4.782
20
6.870
0
VERTEX
8
1
10
4.797
20
6.923
0
VERTEX
8
1
10
4.800
20
6.959
0
VERTEX
8
1
10
4.743
20
6.989
0
VERTEX
8
1
10
4.684
20
7.021
0
VERTEX
8
1
10
4.614
20
7.076
0
VERTEX
8
1
10
4.590
20
7.111
0
VERTEX
8
1
10
4.579
20
7.161
0
VERTEX
8
1
10
4.592
20
7.244
0
VERTEX
8
1
10
4.605
20
7.296
0
VERTEX
8
1
10
4.647
20
7.413
0
VERTEX
8
1
10
4.654
20
7.427
0
VERTEX
8
1
10
4.691
20
7.485
0
VERTEX
8
1
10
4.728
20
7.505
  0
SEQEND
0
POLYLINE
8
1
6
CONTINUOUS
66
1
70
1
0
VERTEX
8
1
10
8.071
20
7.602
0
VERTEX
8
1
10
8.071
20
7.450
0
VERTEX
8
1
10
8.071
20
6.956
0
VERTEX
8
1
10
8.071
20
5.374
0
VERTEX
8
1
10
8.071
20
0.300
0
VERTEX
8
1
10
8.071
20
0.298
0
VERTEX
8
1
10
8.069
20
0.298
0
VERTEX
8
1
10
8.069
20
7.678
0
VERTEX
8
1
10
8.069
20
7.680
  0
SEQEND
  0
ENDSEC
  0
EOF
