  0
SECTION
  2
HEADER
  9
$ACADVER
  1
AC1009
  9
$LIMMIN
 10
0.000000
 20
0.000000
  9
$LIMMAX
 10
8.729864
 20
8.998319
  0
ENDSEC
  0
SECTION
  2
TABLES
  0
TABLE
  2
LTYPE
 70
     4
  0
LTYPE
  2
CONTINUOUS
 70
     0
  3
Solid line
 72
     65
 73
     0
 40
0.000000
  0
LTYPE
  2
HIDDEN
 70
     0
  3
 _ _ _ _ _ _ _ _ _ _ _
 72
     65
 73
     2
 40
0.375000
 49
0.250000
 49
-0.125000
  0
LTYPE
  2
DASHED
 70
     0
  3
 ___ ___ ___ ___ ___ ___ ___ 
 72
     65
 73
     2
 40
0.750000
 49
0.500000
 49
-0.250000
  0
LTYPE
  2
CENTER
 70
     0
  3
___ _ ___ _ ___ _ ___
 72
     65
 73
     4
 40
2.000000
 49
1.250000
 49
-0.250000
 49
0.250000
 49
-0.250000
  0
LTYPE
  2
BORDER
 70
     0
  3
___ ___ . ___ ___ . ___ ___
 72
     65
 73
     6
 40
1.750000
 49
0.500000
 49
-0.250000
 49
0.500000
 49
-0.250000
 49
0.000000
 49
-0.250000
  0
LTYPE
  2
DOT
 70
     0
  3
.................
 72
     65
 73
     2
 40
0.250000
 49
0.000000
 49
-0.250000
  0
LTYPE
  2
DASHDOT
 70
     0
  3
__ . __ . __ . __
 72
     65
 73
     4
 40
1.000000
 49
0.500000
 49
-0.250000
 49
0.000000
 49
-0.250000
  0
LTYPE
  2
DIVIDE
 70
     0
  3
___ .. ___ .. ___ .. ___
 72
     65
 73
     6
 40
1.250000
 49
0.500000
 49
-0.250000
 49
0.000000
 49
-0.250000
 49
0.000000
 49
-0.250000
  0
ENDTAB
  0
TABLE
  2
LAYER
 70
     8
  0
LAYER
  2
BLACK
 70
     0
 62
     1
  6
CONTINUOUS
  0
LAYER
  2
WHITE
 70
     0
 62
     7
  6
CONTINUOUS
  0
LAYER
  2
RED
 70
     0
 62
     1
  6
CONTINUOUS
  0
LAYER
  2
YELLOW
 70
     0
 62
     2
  6
CONTINUOUS
  0
LAYER
  2
GREEN
 70
     0
 62
     3
  6
CONTINUOUS
  0
LAYER
  2
CYAN
 70
     0
 62
     4
  6
CONTINUOUS
  0
LAYER
  2
BLUE
 70
     0
 62
     5
  6
CONTINUOUS
  0
LAYER
  2
MAGENTA
 70
     0
 62
     6
  6
CONTINUOUS
  0
ENDTAB
  0
TABLE
  2
APPID
 70
     1
  0
APPID
  2
TC_BEND_DATA
 70
     0
  0
ENDTAB
  0
ENDSEC
  0
SECTION
  2
BLOCKS
  0
ENDSEC
  0
SECTION
  2
ENTITIES
  0
LINE
  8
WHITE
 10
3.362387
 20
8.154297
 30
0.000000
 11
2.179870
 21
8.154297
 31
0.000000
  6
CONTINUOUS
  0
LINE
  8
WHITE
 10
2.179870
 20
8.154297
 30
0.000000
 11
1.628988
 21
7.177734
 31
0.000000
  6
CONTINUOUS
  0
LINE
  8
WHITE
 10
1.628988
 20
7.177734
 30
0.000000
 11
0.603598
 21
6.542969
 31
0.000000
  6
CONTINUOUS
  0
LINE
  8
WHITE
 10
0.603598
 20
6.542969
 30
0.000000
 11
0.603598
 21
5.444336
 31
0.000000
  6
CONTINUOUS
  0
LINE
  8
WHITE
 10
0.603598
 20
5.444336
 30
0.000000
 11
0.000000
 21
4.362890
 31
0.000000
  6
CONTINUOUS
  0
LINE
  8
WHITE
 10
0.000000
 20
4.362890
 30
0.000000
 11
0.603598
 21
3.320313
 31
0.000000
  6
CONTINUOUS
  0
LINE
  8
WHITE
 10
0.603598
 20
3.320313
 30
0.000000
 11
0.603598
 21
2.161929
 31
0.000000
  6
CONTINUOUS
  0
LINE
  8
WHITE
 10
0.603598
 20
2.161929
 30
0.000000
 11
1.614463
 21
1.603293
 31
0.000000
  6
CONTINUOUS
  0
LINE
  8
WHITE
 10
1.614463
 20
1.603293
 30
0.000000
 11
2.179661
 21
0.585938
 31
0.000000
  6
CONTINUOUS
  0
LINE
  8
WHITE
 10
2.179661
 20
0.585938
 30
0.000000
 11
3.362387
 21
0.585938
 31
0.000000
  6
CONTINUOUS
  0
LINE
  8
WHITE
 10
3.362387
 20
0.585938
 30
0.000000
 11
4.363363
 21
0.000000
 31
0.000000
  6
CONTINUOUS
  0
LINE
  8
WHITE
 10
4.363363
 20
0.000000
 30
0.000000
 11
5.364340
 21
0.585938
 31
0.000000
  6
CONTINUOUS
  0
LINE
  8
WHITE
 10
5.364340
 20
0.585938
 30
0.000000
 11
6.546933
 21
0.585938
 31
0.000000
  6
CONTINUOUS
  0
LINE
  8
WHITE
 10
6.546933
 20
0.585938
 30
0.000000
 11
7.122152
 21
1.611328
 31
0.000000
  6
CONTINUOUS
  0
LINE
  8
WHITE
 10
7.122152
 20
1.611328
 30
0.000000
 11
8.147543
 21
2.161538
 31
0.000000
  6
CONTINUOUS
  0
LINE
  8
WHITE
 10
8.147543
 20
2.161538
 30
0.000000
 11
8.147543
 21
3.344727
 31
0.000000
  6
CONTINUOUS
  0
LINE
  8
WHITE
 10
8.147543
 20
3.344727
 30
0.000000
 11
8.729864
 21
4.357458
 31
0.000000
  6
CONTINUOUS
  0
LINE
  8
WHITE
 10
8.729864
 20
4.357458
 30
0.000000
 11
8.147543
 21
5.395508
 31
0.000000
  6
CONTINUOUS
  0
LINE
  8
WHITE
 10
8.147543
 20
5.395508
 30
0.000000
 11
8.147543
 21
6.553432
 31
0.000000
  6
CONTINUOUS
  0
LINE
  8
WHITE
 10
8.147543
 20
6.553432
 30
0.000000
 11
7.097738
 21
7.153320
 31
0.000000
  6
CONTINUOUS
  0
LINE
  8
WHITE
 10
7.097738
 20
7.153320
 30
0.000000
 11
6.536215
 21
8.154297
 31
0.000000
  6
CONTINUOUS
  0
LINE
  8
WHITE
 10
6.536215
 20
8.154297
 30
0.000000
 11
5.364340
 21
8.154297
 31
0.000000
  6
CONTINUOUS
  0
LINE
  8
WHITE
 10
5.364340
 20
8.154297
 30
0.000000
 11
4.539467
 21
8.639516
 31
0.000000
  6
CONTINUOUS
  0
ARC
  8
WHITE
 10
4.563234
 20
8.679919
 30
0.000000
 40
0.046875
 50
141.658599
 51
239.534456
  6
CONTINUOUS
  0
ARC
  8
WHITE
 10
4.386422
 20
8.819764
 30
0.000000
 40
0.178555
 50
-38.341401
 51
218.638510
  6
CONTINUOUS
  0
ARC
  8
WHITE
 10
4.210338
 20
8.679004
 30
0.000000
 40
0.046875
 50
-60.945396
 51
38.638510
  6
CONTINUOUS
  0
LINE
  8
WHITE
 10
4.233103
 20
8.638028
 30
0.000000
 11
3.362387
 21
8.154297
 31
0.000000
  6
CONTINUOUS
  0
LINE
  8
WHITE
 10
5.144613
 20
5.541992
 30
0.000000
 11
5.144613
 21
5.395508
 31
0.000000
  6
CONTINUOUS
  0
ARC
  8
WHITE
 10
5.423562
 20
4.921851
 30
0.000000
 40
0.549694
 50
120.494923
 51
133.244872
  6
CONTINUOUS
  0
LINE
  8
WHITE
 10
5.046957
 20
5.322266
 30
0.000000
 11
5.169027
 21
5.078125
 31
0.000000
  6
CONTINUOUS
  0
LINE
  8
WHITE
 10
5.169027
 20
5.078125
 30
0.000000
 11
5.242269
 21
4.785156
 31
0.000000
  6
CONTINUOUS
  0
LINE
  8
WHITE
 10
5.242269
 20
4.785156
 30
0.000000
 11
5.217855
 21
4.248047
 31
0.000000
  6
CONTINUOUS
  0
LINE
  8
WHITE
 10
5.217855
 20
4.248047
 30
0.000000
 11
4.998129
 21
3.808594
 31
0.000000
  6
CONTINUOUS
  0
LINE
  8
WHITE
 10
4.998129
 20
3.808594
 30
0.000000
 11
4.541586
 21
3.352051
 31
0.000000
  6
CONTINUOUS
  0
LINE
  8
WHITE
 10
4.541586
 20
3.352051
 30
0.000000
 11
4.607504
 21
3.198242
 31
0.000000
  6
CONTINUOUS
  0
LINE
  8
WHITE
 10
4.607504
 20
3.198242
 30
0.000000
 11
4.705160
 21
3.100586
 31
0.000000
  6
CONTINUOUS
  0
LINE
  8
WHITE
 10
4.705160
 20
3.100586
 30
0.000000
 11
4.753988
 21
2.954102
 31
0.000000
  6
CONTINUOUS
  0
LINE
  8
WHITE
 10
4.753988
 20
2.954102
 30
0.000000
 11
4.802816
 21
2.905273
 31
0.000000
  6
CONTINUOUS
  0
LINE
  8
WHITE
 10
4.802816
 20
2.905273
 30
0.000000
 11
5.144613
 21
2.856445
 31
0.000000
  6
CONTINUOUS
  0
LINE
  8
WHITE
 10
5.144613
 20
2.856445
 30
0.000000
 11
5.828207
 21
2.856445
 31
0.000000
  6
CONTINUOUS
  0
ARC
  8
WHITE
 10
4.351370
 20
4.384031
 30
0.000000
 40
2.124750
 50
-45.967712
 51
225.028458
  6
CONTINUOUS
  0
LINE
  8
WHITE
 10
2.849691
 20
2.880859
 30
0.000000
 11
3.313559
 21
3.027344
 31
0.000000
  6
CONTINUOUS
  0
LINE
  8
WHITE
 10
3.313559
 20
3.027344
 30
0.000000
 11
3.630941
 21
3.027344
 31
0.000000
  6
CONTINUOUS
  0
ARC
  8
WHITE
 10
4.075952
 20
2.622525
 30
0.000000
 40
0.601591
 50
126.990824
 51
137.707741
  6
CONTINUOUS
  0
ARC
  8
WHITE
 10
3.684524
 20
3.338690
 30
0.000000
 40
0.237489
 50
-82.874831
 51
12.103327
  6
CONTINUOUS
  0
LINE
  8
WHITE
 10
3.916734
 20
3.388486
 30
0.000000
 11
3.875082
 21
3.784180
 31
0.000000
  6
CONTINUOUS
  0
ARC
  8
WHITE
 10
3.958522
 20
3.707487
 30
0.000000
 40
0.113331
 50
88.984249
 51
137.412931
  6
CONTINUOUS
  0
ARC
  8
WHITE
 10
3.962540
 20
3.934114
 30
0.000000
 40
0.113331
 50
-91.015751
 51
-42.587069
  6
CONTINUOUS
  0
LINE
  8
WHITE
 10
4.045980
 20
3.857422
 30
0.000000
 11
4.045980
 21
3.906250
 31
0.000000
  6
CONTINUOUS
  0
LINE
  8
WHITE
 10
4.045980
 20
3.906250
 30
0.000000
 11
4.070394
 21
3.930664
 31
0.000000
  6
CONTINUOUS
  0
LINE
  8
WHITE
 10
4.070394
 20
3.930664
 30
0.000000
 11
4.363363
 21
4.028320
 31
0.000000
  6
CONTINUOUS
  0
LINE
  8
WHITE
 10
4.363363
 20
4.028320
 30
0.000000
 11
4.631918
 21
4.296875
 31
0.000000
  6
CONTINUOUS
  0
LINE
  8
WHITE
 10
4.631918
 20
4.296875
 30
0.000000
 11
4.802816
 21
4.638672
 31
0.000000
  6
CONTINUOUS
  0
LINE
  8
WHITE
 10
4.802816
 20
4.638672
 30
0.000000
 11
4.802816
 21
4.858398
 31
0.000000
  6
CONTINUOUS
  0
LINE
  8
WHITE
 10
4.802816
 20
4.858398
 30
0.000000
 11
4.778402
 21
4.882813
 31
0.000000
  6
CONTINUOUS
  0
LINE
  8
WHITE
 10
4.778402
 20
4.882813
 30
0.000000
 11
4.583090
 21
4.711914
 31
0.000000
  6
CONTINUOUS
  0
LINE
  8
WHITE
 10
4.583090
 20
4.711914
 30
0.000000
 11
4.290121
 21
4.809570
 31
0.000000
  6
CONTINUOUS
  0
LINE
  8
WHITE
 10
4.290121
 20
4.809570
 30
0.000000
 11
4.192465
 21
4.882813
 31
0.000000
  6
CONTINUOUS
  0
LINE
  8
WHITE
 10
4.192465
 20
4.882813
 30
0.000000
 11
4.119223
 21
4.882813
 31
0.000000
  6
CONTINUOUS
  0
LINE
  8
WHITE
 10
4.119223
 20
4.882813
 30
0.000000
 11
3.948324
 21
4.589844
 31
0.000000
  6
CONTINUOUS
  0
LINE
  8
WHITE
 10
3.948324
 20
4.589844
 30
0.000000
 11
3.875082
 21
4.614258
 31
0.000000
  6
CONTINUOUS
  0
LINE
  8
WHITE
 10
3.875082
 20
4.614258
 30
0.000000
 11
3.826254
 21
4.711914
 31
0.000000
  6
CONTINUOUS
  0
LINE
  8
WHITE
 10
3.826254
 20
4.711914
 30
0.000000
 11
4.143637
 21
5.249023
 31
0.000000
  6
CONTINUOUS
  0
LINE
  8
WHITE
 10
4.143637
 20
5.249023
 30
0.000000
 11
4.021566
 21
5.517578
 31
0.000000
  6
CONTINUOUS
  0
LINE
  8
WHITE
 10
4.021566
 20
5.517578
 30
0.000000
 11
4.021566
 21
5.712891
 31
0.000000
  6
CONTINUOUS
  0
LINE
  8
WHITE
 10
4.021566
 20
5.712891
 30
0.000000
 11
3.997152
 21
5.737305
 31
0.000000
  6
CONTINUOUS
  0
LINE
  8
WHITE
 10
3.997152
 20
5.737305
 30
0.000000
 11
3.899496
 21
5.761719
 31
0.000000
  6
CONTINUOUS
  0
LINE
  8
WHITE
 10
3.899496
 20
5.761719
 30
0.000000
 11
3.801840
 21
5.859375
 31
0.000000
  6
CONTINUOUS
  0
LINE
  8
WHITE
 10
3.801840
 20
5.859375
 30
0.000000
 11
3.728598
 21
6.005859
 31
0.000000
  6
CONTINUOUS
  0
LINE
  8
WHITE
 10
3.728598
 20
6.005859
 30
0.000000
 11
3.728598
 21
6.127930
 31
0.000000
  6
CONTINUOUS
  0
LINE
  8
WHITE
 10
3.728598
 20
6.127930
 30
0.000000
 11
3.875082
 21
6.323242
 31
0.000000
  6
CONTINUOUS
  0
LINE
  8
WHITE
 10
3.875082
 20
6.323242
 30
0.000000
 11
3.997152
 21
6.323242
 31
0.000000
  6
CONTINUOUS
  0
LINE
  8
WHITE
 10
3.997152
 20
6.323242
 30
0.000000
 11
4.045980
 21
6.250000
 31
0.000000
  6
CONTINUOUS
  0
LINE
  8
WHITE
 10
4.045980
 20
6.250000
 30
0.000000
 11
3.997152
 21
6.201172
 31
0.000000
  6
CONTINUOUS
  0
LINE
  8
WHITE
 10
3.997152
 20
6.201172
 30
0.000000
 11
3.997152
 21
5.932617
 31
0.000000
  6
CONTINUOUS
  0
LINE
  8
WHITE
 10
3.997152
 20
5.932617
 30
0.000000
 11
4.094809
 21
5.834961
 31
0.000000
  6
CONTINUOUS
  0
LINE
  8
WHITE
 10
4.094809
 20
5.834961
 30
0.000000
 11
4.119223
 21
5.859375
 31
0.000000
  6
CONTINUOUS
  0
LINE
  8
WHITE
 10
4.119223
 20
5.859375
 30
0.000000
 11
4.045980
 21
5.981445
 31
0.000000
  6
CONTINUOUS
  0
LINE
  8
WHITE
 10
4.045980
 20
5.981445
 30
0.000000
 11
4.070394
 21
6.225586
 31
0.000000
  6
CONTINUOUS
  0
LINE
  8
WHITE
 10
4.070394
 20
6.225586
 30
0.000000
 11
4.265707
 21
6.396484
 31
0.000000
  6
CONTINUOUS
  0
LINE
  8
WHITE
 10
4.265707
 20
6.396484
 30
0.000000
 11
4.363363
 21
6.420898
 31
0.000000
  6
CONTINUOUS
  0
ARC
  8
WHITE
 10
4.239066
 20
6.293196
 30
0.000000
 40
0.178207
 50
13.715621
 51
45.774143
  6
CONTINUOUS
  0
ARC
  8
WHITE
 10
4.680213
 20
6.407258
 30
0.000000
 40
0.277475
 50
-165.001566
 51
-151.395615
  6
CONTINUOUS
  0
LINE
  8
WHITE
 10
4.436605
 20
6.274414
 30
0.000000
 11
4.290121
 21
6.127930
 31
0.000000
  6
CONTINUOUS
  0
LINE
  8
WHITE
 10
4.290121
 20
6.127930
 30
0.000000
 11
4.241293
 21
6.054688
 31
0.000000
  6
CONTINUOUS
  0
LINE
  8
WHITE
 10
4.241293
 20
6.054688
 30
0.000000
 11
4.265707
 21
5.981445
 31
0.000000
  6
CONTINUOUS
  0
LINE
  8
WHITE
 10
4.265707
 20
5.981445
 30
0.000000
 11
4.314535
 21
6.030273
 31
0.000000
  6
CONTINUOUS
  0
LINE
  8
WHITE
 10
4.314535
 20
6.030273
 30
0.000000
 11
4.314535
 21
6.103516
 31
0.000000
  6
CONTINUOUS
  0
LINE
  8
WHITE
 10
4.314535
 20
6.103516
 30
0.000000
 11
4.461019
 21
6.250000
 31
0.000000
  6
CONTINUOUS
  0
LINE
  8
WHITE
 10
4.461019
 20
6.250000
 30
0.000000
 11
4.607504
 21
6.298828
 31
0.000000
  6
CONTINUOUS
  0
LINE
  8
WHITE
 10
4.607504
 20
6.298828
 30
0.000000
 11
4.802816
 21
6.201172
 31
0.000000
  6
CONTINUOUS
  0
LINE
  8
WHITE
 10
4.802816
 20
6.201172
 30
0.000000
 11
4.827230
 21
6.176758
 31
0.000000
  6
CONTINUOUS
  0
LINE
  8
WHITE
 10
4.827230
 20
6.176758
 30
0.000000
 11
4.827230
 21
6.127930
 31
0.000000
  6
CONTINUOUS
  0
LINE
  8
WHITE
 10
4.827230
 20
6.127930
 30
0.000000
 11
4.631918
 21
6.103516
 31
0.000000
  6
CONTINUOUS
  0
LINE
  8
WHITE
 10
4.631918
 20
6.103516
 30
0.000000
 11
4.412191
 21
5.932617
 31
0.000000
  6
CONTINUOUS
  0
LINE
  8
WHITE
 10
4.412191
 20
5.932617
 30
0.000000
 11
4.436605
 21
5.883789
 31
0.000000
  6
CONTINUOUS
  0
LINE
  8
WHITE
 10
4.436605
 20
5.883789
 30
0.000000
 11
4.753988
 21
6.054688
 31
0.000000
  6
CONTINUOUS
  0
LINE
  8
WHITE
 10
4.753988
 20
6.054688
 30
0.000000
 11
4.998129
 21
6.054688
 31
0.000000
  6
CONTINUOUS
  0
LINE
  8
WHITE
 10
4.998129
 20
6.054688
 30
0.000000
 11
5.242269
 21
5.883789
 31
0.000000
  6
CONTINUOUS
  0
ARC
  8
WHITE
 10
5.075524
 20
5.900829
 30
0.000000
 40
0.167614
 50
-56.092711
 51
-5.834801
  6
CONTINUOUS
  0
LINE
  8
WHITE
 10
5.169027
 20
5.761719
 30
0.000000
 11
5.095785
 21
5.761719
 31
0.000000
  6
CONTINUOUS
  0
LINE
  8
WHITE
 10
5.095785
 20
5.761719
 30
0.000000
 11
4.949301
 21
5.834961
 31
0.000000
  6
CONTINUOUS
  0
LINE
  8
WHITE
 10
4.949301
 20
5.834961
 30
0.000000
 11
4.705160
 21
5.859375
 31
0.000000
  6
CONTINUOUS
  0
LINE
  8
WHITE
 10
4.705160
 20
5.859375
 30
0.000000
 11
4.680746
 21
5.834961
 31
0.000000
  6
CONTINUOUS
  0
LINE
  8
WHITE
 10
4.680746
 20
5.834961
 30
0.000000
 11
4.680746
 21
5.810547
 31
0.000000
  6
CONTINUOUS
  0
LINE
  8
WHITE
 10
4.680746
 20
5.810547
 30
0.000000
 11
4.876059
 21
5.761719
 31
0.000000
  6
CONTINUOUS
  0
LINE
  8
WHITE
 10
4.876059
 20
5.761719
 30
0.000000
 11
5.095785
 21
5.615234
 31
0.000000
  6
CONTINUOUS
  0
LINE
  8
WHITE
 10
5.095785
 20
5.615234
 30
0.000000
 11
5.144613
 21
5.541992
 31
0.000000
  6
CONTINUOUS
  0
LINE
  8
WHITE
 10
4.119223
 20
3.125000
 30
0.000000
 11
4.070394
 21
3.613281
 31
0.000000
  6
CONTINUOUS
  0
ARC
  8
WHITE
 10
4.177119
 20
3.523471
 30
0.000000
 40
0.139485
 50
83.683781
 51
139.919038
  6
CONTINUOUS
  0
LINE
  8
WHITE
 10
4.192465
 20
3.662109
 30
0.000000
 11
4.314535
 21
3.540039
 31
0.000000
  6
CONTINUOUS
  0
LINE
  8
WHITE
 10
4.314535
 20
3.540039
 30
0.000000
 11
4.241293
 21
3.393555
 31
0.000000
  6
CONTINUOUS
  0
LINE
  8
WHITE
 10
4.241293
 20
3.393555
 30
0.000000
 11
4.265707
 21
3.369141
 31
0.000000
  6
CONTINUOUS
  0
LINE
  8
WHITE
 10
4.265707
 20
3.369141
 30
0.000000
 11
4.314535
 21
3.344727
 31
0.000000
  6
CONTINUOUS
  0
LINE
  8
WHITE
 10
4.314535
 20
3.344727
 30
0.000000
 11
4.461019
 21
3.100586
 31
0.000000
  6
CONTINUOUS
  0
LINE
  8
WHITE
 10
4.461019
 20
3.100586
 30
0.000000
 11
4.485434
 21
3.002930
 31
0.000000
  6
CONTINUOUS
  0
LINE
  8
WHITE
 10
4.485434
 20
3.002930
 30
0.000000
 11
4.436605
 21
2.954102
 31
0.000000
  6
CONTINUOUS
  0
LINE
  8
WHITE
 10
4.436605
 20
2.954102
 30
0.000000
 11
3.850668
 21
2.990723
 31
0.000000
  6
CONTINUOUS
  0
LINE
  8
WHITE
 10
3.850668
 20
2.990723
 30
0.000000
 11
4.119223
 21
3.125000
 31
0.000000
  6
CONTINUOUS
  0
ARC
  8
WHITE
 10
4.561808
 20
5.530936
 30
0.000000
 40
0.462397
 50
-129.818735
 51
-112.108778
  6
CONTINUOUS
  0
LINE
  8
WHITE
 10
4.265707
 20
5.175781
 30
0.000000
 11
4.265707
 21
5.224609
 31
0.000000
  6
CONTINUOUS
  0
LINE
  8
WHITE
 10
4.265707
 20
5.224609
 30
0.000000
 11
4.290121
 21
5.249023
 31
0.000000
  6
CONTINUOUS
  0
LINE
  8
WHITE
 10
4.290121
 20
5.249023
 30
0.000000
 11
4.436605
 21
5.322266
 31
0.000000
  6
CONTINUOUS
  0
LINE
  8
WHITE
 10
4.436605
 20
5.322266
 30
0.000000
 11
4.534262
 21
5.444336
 31
0.000000
  6
CONTINUOUS
  0
LINE
  8
WHITE
 10
4.534262
 20
5.444336
 30
0.000000
 11
4.583090
 21
5.395508
 31
0.000000
  6
CONTINUOUS
  0
LINE
  8
WHITE
 10
4.583090
 20
5.395508
 30
0.000000
 11
4.583090
 21
5.322266
 31
0.000000
  6
CONTINUOUS
  0
LINE
  8
WHITE
 10
4.583090
 20
5.322266
 30
0.000000
 11
4.509848
 21
5.175781
 31
0.000000
  6
CONTINUOUS
  0
LINE
  8
WHITE
 10
4.509848
 20
5.175781
 30
0.000000
 11
4.387777
 21
5.102539
 31
0.000000
  6
CONTINUOUS
  0
CIRCLE
  8
WHITE
 10
4.386422
 20
8.819764
 30
0.000000
 40
0.074417
  6
CONTINUOUS
  0
LINE
  8
WHITE
 10
4.336422
 20
8.471998
 30
0.000000
 11
3.412997
 21
7.958984
 31
0.000000
  6
CONTINUOUS
  0
LINE
  8
WHITE
 10
3.412997
 20
7.958984
 30
0.000000
 11
2.293938
 21
7.958984
 31
0.000000
  6
CONTINUOUS
  0
LINE
  8
WHITE
 10
2.293938
 20
7.958984
 30
0.000000
 11
1.774451
 21
7.038075
 31
0.000000
  6
CONTINUOUS
  0
LINE
  8
WHITE
 10
1.774451
 20
7.038075
 30
0.000000
 11
0.798910
 21
6.434169
 31
0.000000
  6
CONTINUOUS
  0
LINE
  8
WHITE
 10
0.798910
 20
6.434169
 30
0.000000
 11
0.798910
 21
5.393520
 31
0.000000
  6
CONTINUOUS
  0
LINE
  8
WHITE
 10
0.798910
 20
5.393520
 30
0.000000
 11
0.224661
 21
4.364657
 31
0.000000
  6
CONTINUOUS
  0
LINE
  8
WHITE
 10
0.224661
 20
4.364657
 30
0.000000
 11
0.798910
 21
3.372772
 31
0.000000
  6
CONTINUOUS
  0
LINE
  8
WHITE
 10
0.798910
 20
3.372772
 30
0.000000
 11
0.798910
 21
2.277146
 31
0.000000
  6
CONTINUOUS
  0
LINE
  8
WHITE
 10
0.798910
 20
2.277146
 30
0.000000
 11
1.757982
 21
1.747133
 31
0.000000
  6
CONTINUOUS
  0
LINE
  8
WHITE
 10
1.757982
 20
1.747133
 30
0.000000
 11
2.294584
 21
0.781250
 31
0.000000
  6
CONTINUOUS
  0
LINE
  8
WHITE
 10
2.294584
 20
0.781250
 30
0.000000
 11
3.415348
 21
0.781250
 31
0.000000
  6
CONTINUOUS
  0
LINE
  8
WHITE
 10
3.415348
 20
0.781250
 30
0.000000
 11
4.313363
 21
0.255583
 31
0.000000
  6
CONTINUOUS
  0
LINE
  8
WHITE
 10
4.336422
 20
8.248569
 30
0.000000
 11
3.463608
 21
7.763672
 31
0.000000
  6
CONTINUOUS
  0
LINE
  8
WHITE
 10
3.463608
 20
7.763672
 30
0.000000
 11
2.408007
 21
7.763672
 31
0.000000
  6
CONTINUOUS
  0
LINE
  8
WHITE
 10
2.408007
 20
7.763672
 30
0.000000
 11
1.919914
 21
6.898416
 31
0.000000
  6
CONTINUOUS
  0
LINE
  8
WHITE
 10
1.919914
 20
6.898416
 30
0.000000
 11
0.994223
 21
6.325369
 31
0.000000
  6
CONTINUOUS
  0
LINE
  8
WHITE
 10
0.994223
 20
6.325369
 30
0.000000
 11
0.994223
 21
5.342704
 31
0.000000
  6
CONTINUOUS
  0
LINE
  8
WHITE
 10
0.994223
 20
5.342704
 30
0.000000
 11
0.449322
 21
4.366423
 31
0.000000
  6
CONTINUOUS
  0
LINE
  8
WHITE
 10
0.449322
 20
4.366423
 30
0.000000
 11
0.994223
 21
3.425231
 31
0.000000
  6
CONTINUOUS
  0
LINE
  8
WHITE
 10
0.994223
 20
3.425231
 30
0.000000
 11
0.994223
 21
2.392363
 31
0.000000
  6
CONTINUOUS
  0
LINE
  8
WHITE
 10
0.994223
 20
2.392363
 30
0.000000
 11
1.901500
 21
1.890973
 31
0.000000
  6
CONTINUOUS
  0
LINE
  8
WHITE
 10
1.901500
 20
1.890973
 30
0.000000
 11
2.409506
 21
0.976563
 31
0.000000
  6
CONTINUOUS
  0
LINE
  8
WHITE
 10
2.409506
 20
0.976563
 30
0.000000
 11
3.468309
 21
0.976563
 31
0.000000
  6
CONTINUOUS
  0
LINE
  8
WHITE
 10
3.468309
 20
0.976563
 30
0.000000
 11
4.313363
 21
0.481897
 31
0.000000
  6
CONTINUOUS
  0
LINE
  8
WHITE
 10
4.336422
 20
8.025139
 30
0.000000
 11
3.514218
 21
7.568359
 31
0.000000
  6
CONTINUOUS
  0
LINE
  8
WHITE
 10
3.514218
 20
7.568359
 30
0.000000
 11
2.522076
 21
7.568359
 31
0.000000
  6
CONTINUOUS
  0
LINE
  8
WHITE
 10
2.522076
 20
7.568359
 30
0.000000
 11
2.065376
 21
6.758756
 31
0.000000
  6
CONTINUOUS
  0
LINE
  8
WHITE
 10
2.065376
 20
6.758756
 30
0.000000
 11
1.189535
 21
6.216569
 31
0.000000
  6
CONTINUOUS
  0
LINE
  8
WHITE
 10
1.189535
 20
6.216569
 30
0.000000
 11
1.189535
 21
5.291887
 31
0.000000
  6
CONTINUOUS
  0
LINE
  8
WHITE
 10
1.189535
 20
5.291887
 30
0.000000
 11
0.673983
 21
4.368189
 31
0.000000
  6
CONTINUOUS
  0
LINE
  8
WHITE
 10
0.673983
 20
4.368189
 30
0.000000
 11
1.189535
 21
3.477690
 31
0.000000
  6
CONTINUOUS
  0
LINE
  8
WHITE
 10
1.189535
 20
3.477690
 30
0.000000
 11
1.189535
 21
2.507580
 31
0.000000
  6
CONTINUOUS
  0
LINE
  8
WHITE
 10
1.189535
 20
2.507580
 30
0.000000
 11
2.045019
 21
2.034813
 31
0.000000
  6
CONTINUOUS
  0
LINE
  8
WHITE
 10
2.045019
 20
2.034813
 30
0.000000
 11
2.524429
 21
1.171875
 31
0.000000
  6
CONTINUOUS
  0
LINE
  8
WHITE
 10
2.524429
 20
1.171875
 30
0.000000
 11
3.521271
 21
1.171875
 31
0.000000
  6
CONTINUOUS
  0
LINE
  8
WHITE
 10
3.521271
 20
1.171875
 30
0.000000
 11
4.313363
 21
0.708211
 31
0.000000
  6
CONTINUOUS
  0
LINE
  8
WHITE
 10
4.336422
 20
7.801710
 30
0.000000
 11
3.564829
 21
7.373047
 31
0.000000
  6
CONTINUOUS
  0
LINE
  8
WHITE
 10
3.564829
 20
7.373047
 30
0.000000
 11
2.636144
 21
7.373047
 31
0.000000
  6
CONTINUOUS
  0
LINE
  8
WHITE
 10
2.636144
 20
7.373047
 30
0.000000
 11
2.210839
 21
6.619097
 31
0.000000
  6
CONTINUOUS
  0
LINE
  8
WHITE
 10
2.210839
 20
6.619097
 30
0.000000
 11
1.384848
 21
6.107769
 31
0.000000
  6
CONTINUOUS
  0
LINE
  8
WHITE
 10
1.384848
 20
6.107769
 30
0.000000
 11
1.384848
 21
5.241071
 31
0.000000
  6
CONTINUOUS
  0
LINE
  8
WHITE
 10
1.384848
 20
5.241071
 30
0.000000
 11
0.898644
 21
4.369956
 31
0.000000
  6
CONTINUOUS
  0
LINE
  8
WHITE
 10
0.898644
 20
4.369956
 30
0.000000
 11
1.384848
 21
3.530149
 31
0.000000
  6
CONTINUOUS
  0
LINE
  8
WHITE
 10
1.384848
 20
3.530149
 30
0.000000
 11
1.384848
 21
2.622797
 31
0.000000
  6
CONTINUOUS
  0
LINE
  8
WHITE
 10
1.384848
 20
2.622797
 30
0.000000
 11
2.188537
 21
2.178653
 31
0.000000
  6
CONTINUOUS
  0
LINE
  8
WHITE
 10
2.188537
 20
2.178653
 30
0.000000
 11
2.639351
 21
1.367188
 31
0.000000
  6
CONTINUOUS
  0
LINE
  8
WHITE
 10
2.639351
 20
1.367188
 30
0.000000
 11
3.574232
 21
1.367188
 31
0.000000
  6
CONTINUOUS
  0
LINE
  8
WHITE
 10
3.574232
 20
1.367188
 30
0.000000
 11
4.313363
 21
0.934525
 31
0.000000
  6
CONTINUOUS
  0
LINE
  8
WHITE
 10
4.336422
 20
7.578280
 30
0.000000
 11
3.615439
 21
7.177734
 31
0.000000
  6
CONTINUOUS
  0
LINE
  8
WHITE
 10
3.615439
 20
7.177734
 30
0.000000
 11
2.750213
 21
7.177734
 31
0.000000
  6
CONTINUOUS
  0
LINE
  8
WHITE
 10
2.750213
 20
7.177734
 30
0.000000
 11
2.356302
 21
6.479437
 31
0.000000
  6
CONTINUOUS
  0
LINE
  8
WHITE
 10
2.356302
 20
6.479437
 30
0.000000
 11
1.580160
 21
5.998969
 31
0.000000
  6
CONTINUOUS
  0
LINE
  8
WHITE
 10
1.580160
 20
5.998969
 30
0.000000
 11
1.580160
 21
5.190255
 31
0.000000
  6
CONTINUOUS
  0
LINE
  8
WHITE
 10
1.580160
 20
5.190255
 30
0.000000
 11
1.123305
 21
4.371722
 31
0.000000
  6
CONTINUOUS
  0
LINE
  8
WHITE
 10
1.123305
 20
4.371722
 30
0.000000
 11
1.580160
 21
3.582608
 31
0.000000
  6
CONTINUOUS
  0
LINE
  8
WHITE
 10
1.580160
 20
3.582608
 30
0.000000
 11
1.580160
 21
2.738014
 31
0.000000
  6
CONTINUOUS
  0
LINE
  8
WHITE
 10
1.580160
 20
2.738014
 30
0.000000
 11
2.332056
 21
2.322492
 31
0.000000
  6
CONTINUOUS
  0
LINE
  8
WHITE
 10
2.332056
 20
2.322492
 30
0.000000
 11
2.754274
 21
1.562500
 31
0.000000
  6
CONTINUOUS
  0
LINE
  8
WHITE
 10
2.754274
 20
1.562500
 30
0.000000
 11
3.627194
 21
1.562500
 31
0.000000
  6
CONTINUOUS
  0
LINE
  8
WHITE
 10
3.627194
 20
1.562500
 30
0.000000
 11
4.313363
 21
1.160840
 31
0.000000
  6
CONTINUOUS
  0
LINE
  8
WHITE
 10
4.336422
 20
7.354851
 30
0.000000
 11
3.666050
 21
6.982422
 31
0.000000
  6
CONTINUOUS
  0
LINE
  8
WHITE
 10
3.666050
 20
6.982422
 30
0.000000
 11
2.864282
 21
6.982422
 31
0.000000
  6
CONTINUOUS
  0
LINE
  8
WHITE
 10
2.864282
 20
6.982422
 30
0.000000
 11
2.501764
 21
6.339778
 31
0.000000
  6
CONTINUOUS
  0
LINE
  8
WHITE
 10
2.501764
 20
6.339778
 30
0.000000
 11
1.775473
 21
5.890169
 31
0.000000
  6
CONTINUOUS
  0
LINE
  8
WHITE
 10
1.775473
 20
5.890169
 30
0.000000
 11
1.775473
 21
5.139439
 31
0.000000
  6
CONTINUOUS
  0
LINE
  8
WHITE
 10
1.775473
 20
5.139439
 30
0.000000
 11
1.347965
 21
4.373489
 31
0.000000
  6
CONTINUOUS
  0
LINE
  8
WHITE
 10
1.347965
 20
4.373489
 30
0.000000
 11
1.775473
 21
3.635067
 31
0.000000
  6
CONTINUOUS
  0
LINE
  8
WHITE
 10
1.775473
 20
3.635067
 30
0.000000
 11
1.775473
 21
2.853230
 31
0.000000
  6
CONTINUOUS
  0
LINE
  8
WHITE
 10
1.775473
 20
2.853230
 30
0.000000
 11
2.475574
 21
2.466332
 31
0.000000
  6
CONTINUOUS
  0
LINE
  8
WHITE
 10
2.475574
 20
2.466332
 30
0.000000
 11
2.869196
 21
1.757813
 31
0.000000
  6
CONTINUOUS
  0
LINE
  8
WHITE
 10
2.869196
 20
1.757813
 30
0.000000
 11
3.680155
 21
1.757813
 31
0.000000
  6
CONTINUOUS
  0
LINE
  8
WHITE
 10
3.680155
 20
1.757813
 30
0.000000
 11
4.313363
 21
1.387154
 31
0.000000
  6
CONTINUOUS
  0
LINE
  8
WHITE
 10
4.336422
 20
7.131421
 30
0.000000
 11
3.716661
 21
6.787109
 31
0.000000
  6
CONTINUOUS
  0
LINE
  8
WHITE
 10
3.716661
 20
6.787109
 30
0.000000
 11
2.978350
 21
6.787109
 31
0.000000
  6
CONTINUOUS
  0
LINE
  8
WHITE
 10
2.978350
 20
6.787109
 30
0.000000
 11
2.647227
 21
6.200118
 31
0.000000
  6
CONTINUOUS
  0
LINE
  8
WHITE
 10
2.647227
 20
6.200118
 30
0.000000
 11
1.970785
 21
5.781369
 31
0.000000
  6
CONTINUOUS
  0
LINE
  8
WHITE
 10
1.970785
 20
5.781369
 30
0.000000
 11
1.970785
 21
5.088623
 31
0.000000
  6
CONTINUOUS
  0
LINE
  8
WHITE
 10
1.970785
 20
5.088623
 30
0.000000
 11
1.572626
 21
4.375255
 31
0.000000
  6
CONTINUOUS
  0
LINE
  8
WHITE
 10
1.572626
 20
4.375255
 30
0.000000
 11
1.970785
 21
3.687526
 31
0.000000
  6
CONTINUOUS
  0
LINE
  8
WHITE
 10
1.970785
 20
3.687526
 30
0.000000
 11
1.970785
 21
2.968447
 31
0.000000
  6
CONTINUOUS
  0
LINE
  8
WHITE
 10
1.970785
 20
2.968447
 30
0.000000
 11
2.619092
 21
2.610172
 31
0.000000
  6
CONTINUOUS
  0
LINE
  8
WHITE
 10
2.619092
 20
2.610172
 30
0.000000
 11
2.984119
 21
1.953125
 31
0.000000
  6
CONTINUOUS
  0
LINE
  8
WHITE
 10
2.984119
 20
1.953125
 30
0.000000
 11
3.733116
 21
1.953125
 31
0.000000
  6
CONTINUOUS
  0
LINE
  8
WHITE
 10
3.733116
 20
1.953125
 30
0.000000
 11
4.313363
 21
1.613468
 31
0.000000
  6
CONTINUOUS
  0
LINE
  8
WHITE
 10
4.336422
 20
6.907992
 30
0.000000
 11
3.767271
 21
6.591797
 31
0.000000
  6
CONTINUOUS
  0
LINE
  8
WHITE
 10
3.767271
 20
6.591797
 30
0.000000
 11
3.092419
 21
6.591797
 31
0.000000
  6
CONTINUOUS
  0
LINE
  8
WHITE
 10
3.092419
 20
6.591797
 30
0.000000
 11
2.792690
 21
6.060459
 31
0.000000
  6
CONTINUOUS
  0
LINE
  8
WHITE
 10
2.792690
 20
6.060459
 30
0.000000
 11
2.166098
 21
5.672569
 31
0.000000
  6
CONTINUOUS
  0
LINE
  8
WHITE
 10
2.166098
 20
5.672569
 30
0.000000
 11
2.166098
 21
5.037807
 31
0.000000
  6
CONTINUOUS
  0
LINE
  8
WHITE
 10
2.166098
 20
5.037807
 30
0.000000
 11
1.797287
 21
4.377022
 31
0.000000
  6
CONTINUOUS
  0
LINE
  8
WHITE
 10
1.797287
 20
4.377022
 30
0.000000
 11
2.166098
 21
3.739986
 31
0.000000
  6
CONTINUOUS
  0
LINE
  8
WHITE
 10
2.166098
 20
3.739986
 30
0.000000
 11
2.166098
 21
3.083664
 31
0.000000
  6
CONTINUOUS
  0
LINE
  8
WHITE
 10
2.166098
 20
3.083664
 30
0.000000
 11
2.762611
 21
2.754012
 31
0.000000
  6
CONTINUOUS
  0
LINE
  8
WHITE
 10
2.762611
 20
2.754012
 30
0.000000
 11
3.099041
 21
2.148438
 31
0.000000
  6
CONTINUOUS
  0
LINE
  8
WHITE
 10
3.099041
 20
2.148438
 30
0.000000
 11
3.786078
 21
2.148438
 31
0.000000
  6
CONTINUOUS
  0
LINE
  8
WHITE
 10
3.786078
 20
2.148438
 30
0.000000
 11
4.313363
 21
1.839783
 31
0.000000
  6
CONTINUOUS
  0
LINE
  8
WHITE
 10
4.656332
 20
5.078125
 30
0.000000
 11
4.534262
 21
4.931641
 31
0.000000
  6
CONTINUOUS
  0
LINE
  8
WHITE
 10
4.534262
 20
4.931641
 30
0.000000
 11
4.168051
 21
5.029297
 31
0.000000
  6
CONTINUOUS
  0
LINE
  8
WHITE
 10
4.413363
 20
0.255583
 30
0.000000
 11
5.311378
 21
0.781250
 31
0.000000
  6
CONTINUOUS
  0
LINE
  8
WHITE
 10
5.311378
 20
0.781250
 30
0.000000
 11
6.432553
 21
0.781250
 31
0.000000
  6
CONTINUOUS
  0
LINE
  8
WHITE
 10
6.432553
 20
0.781250
 30
0.000000
 11
6.979656
 21
1.756521
 31
0.000000
  6
CONTINUOUS
  0
LINE
  8
WHITE
 10
6.979656
 20
1.756521
 30
0.000000
 11
7.952230
 21
2.278390
 31
0.000000
  6
CONTINUOUS
  0
LINE
  8
WHITE
 10
7.952230
 20
2.278390
 30
0.000000
 11
7.952230
 21
3.396876
 31
0.000000
  6
CONTINUOUS
  0
LINE
  8
WHITE
 10
7.952230
 20
3.396876
 30
0.000000
 11
8.505250
 21
4.358649
 31
0.000000
  6
CONTINUOUS
  0
LINE
  8
WHITE
 10
8.505250
 20
4.358649
 30
0.000000
 11
7.952230
 21
5.344466
 31
0.000000
  6
CONTINUOUS
  0
LINE
  8
WHITE
 10
7.952230
 20
5.344466
 30
0.000000
 11
7.952230
 21
6.440088
 31
0.000000
  6
CONTINUOUS
  0
LINE
  8
WHITE
 10
7.952230
 20
6.440088
 30
0.000000
 11
6.953866
 21
7.010582
 31
0.000000
  6
CONTINUOUS
  0
LINE
  8
WHITE
 10
6.953866
 20
7.010582
 30
0.000000
 11
6.421835
 21
7.958984
 31
0.000000
  6
CONTINUOUS
  0
LINE
  8
WHITE
 10
6.421835
 20
7.958984
 30
0.000000
 11
5.311155
 21
7.958984
 31
0.000000
  6
CONTINUOUS
  0
LINE
  8
WHITE
 10
5.311155
 20
7.958984
 30
0.000000
 11
4.436422
 21
8.473533
 31
0.000000
  6
CONTINUOUS
  0
LINE
  8
WHITE
 10
4.413363
 20
0.481897
 30
0.000000
 11
5.258417
 21
0.976563
 31
0.000000
  6
CONTINUOUS
  0
LINE
  8
WHITE
 10
5.258417
 20
0.976563
 30
0.000000
 11
6.318173
 21
0.976563
 31
0.000000
  6
CONTINUOUS
  0
LINE
  8
WHITE
 10
6.318173
 20
0.976563
 30
0.000000
 11
6.837160
 21
1.901713
 31
0.000000
  6
CONTINUOUS
  0
LINE
  8
WHITE
 10
6.837160
 20
1.901713
 30
0.000000
 11
7.756918
 21
2.395242
 31
0.000000
  6
CONTINUOUS
  0
LINE
  8
WHITE
 10
7.756918
 20
2.395242
 30
0.000000
 11
7.756918
 21
3.449025
 31
0.000000
  6
CONTINUOUS
  0
LINE
  8
WHITE
 10
7.756918
 20
3.449025
 30
0.000000
 11
8.280636
 21
4.359840
 31
0.000000
  6
CONTINUOUS
  0
LINE
  8
WHITE
 10
8.280636
 20
4.359840
 30
0.000000
 11
7.756918
 21
5.293425
 31
0.000000
  6
CONTINUOUS
  0
LINE
  8
WHITE
 10
7.756918
 20
5.293425
 30
0.000000
 11
7.756918
 21
6.326743
 31
0.000000
  6
CONTINUOUS
  0
LINE
  8
WHITE
 10
7.756918
 20
6.326743
 30
0.000000
 11
6.809993
 21
6.867844
 31
0.000000
  6
CONTINUOUS
  0
LINE
  8
WHITE
 10
6.809993
 20
6.867844
 30
0.000000
 11
6.307455
 21
7.763672
 31
0.000000
  6
CONTINUOUS
  0
LINE
  8
WHITE
 10
6.307455
 20
7.763672
 30
0.000000
 11
5.257969
 21
7.763672
 31
0.000000
  6
CONTINUOUS
  0
LINE
  8
WHITE
 10
5.257969
 20
7.763672
 30
0.000000
 11
4.436422
 21
8.246935
 31
0.000000
  6
CONTINUOUS
  0
LINE
  8
WHITE
 10
4.413363
 20
0.708211
 30
0.000000
 11
5.205456
 21
1.171875
 31
0.000000
  6
CONTINUOUS
  0
LINE
  8
WHITE
 10
5.205456
 20
1.171875
 30
0.000000
 11
6.203793
 21
1.171875
 31
0.000000
  6
CONTINUOUS
  0
LINE
  8
WHITE
 10
6.203793
 20
1.171875
 30
0.000000
 11
6.694664
 21
2.046906
 31
0.000000
  6
CONTINUOUS
  0
LINE
  8
WHITE
 10
6.694664
 20
2.046906
 30
0.000000
 11
7.561605
 21
2.512094
 31
0.000000
  6
CONTINUOUS
  0
LINE
  8
WHITE
 10
7.561605
 20
2.512094
 30
0.000000
 11
7.561605
 21
3.501174
 31
0.000000
  6
CONTINUOUS
  0
LINE
  8
WHITE
 10
7.561605
 20
3.501174
 30
0.000000
 11
8.056023
 21
4.361031
 31
0.000000
  6
CONTINUOUS
  0
LINE
  8
WHITE
 10
8.056023
 20
4.361031
 30
0.000000
 11
7.561605
 21
5.242384
 31
0.000000
  6
CONTINUOUS
  0
LINE
  8
WHITE
 10
7.561605
 20
5.242384
 30
0.000000
 11
7.561605
 21
6.213399
 31
0.000000
  6
CONTINUOUS
  0
LINE
  8
WHITE
 10
7.561605
 20
6.213399
 30
0.000000
 11
6.666120
 21
6.725105
 31
0.000000
  6
CONTINUOUS
  0
LINE
  8
WHITE
 10
6.666120
 20
6.725105
 30
0.000000
 11
6.193075
 21
7.568359
 31
0.000000
  6
CONTINUOUS
  0
LINE
  8
WHITE
 10
6.193075
 20
7.568359
 30
0.000000
 11
5.204784
 21
7.568359
 31
0.000000
  6
CONTINUOUS
  0
LINE
  8
WHITE
 10
5.204784
 20
7.568359
 30
0.000000
 11
4.436422
 21
8.020337
 31
0.000000
  6
CONTINUOUS
  0
LINE
  8
WHITE
 10
4.413363
 20
0.934525
 30
0.000000
 11
5.152494
 21
1.367188
 31
0.000000
  6
CONTINUOUS
  0
LINE
  8
WHITE
 10
5.152494
 20
1.367188
 30
0.000000
 11
6.089413
 21
1.367188
 31
0.000000
  6
CONTINUOUS
  0
LINE
  8
WHITE
 10
6.089413
 20
1.367188
 30
0.000000
 11
6.552168
 21
2.192098
 31
0.000000
  6
CONTINUOUS
  0
LINE
  8
WHITE
 10
6.552168
 20
2.192098
 30
0.000000
 11
7.366293
 21
2.628946
 31
0.000000
  6
CONTINUOUS
  0
LINE
  8
WHITE
 10
7.366293
 20
2.628946
 30
0.000000
 11
7.366293
 21
3.553323
 31
0.000000
  6
CONTINUOUS
  0
LINE
  8
WHITE
 10
7.366293
 20
3.553323
 30
0.000000
 11
7.831409
 21
4.362221
 31
0.000000
  6
CONTINUOUS
  0
LINE
  8
WHITE
 10
7.831409
 20
4.362221
 30
0.000000
 11
7.366293
 21
5.191342
 31
0.000000
  6
CONTINUOUS
  0
LINE
  8
WHITE
 10
7.366293
 20
5.191342
 30
0.000000
 11
7.366293
 21
6.100055
 31
0.000000
  6
CONTINUOUS
  0
LINE
  8
WHITE
 10
7.366293
 20
6.100055
 30
0.000000
 11
6.522247
 21
6.582367
 31
0.000000
  6
CONTINUOUS
  0
LINE
  8
WHITE
 10
6.522247
 20
6.582367
 30
0.000000
 11
6.078695
 21
7.373047
 31
0.000000
  6
CONTINUOUS
  0
LINE
  8
WHITE
 10
6.078695
 20
7.373047
 30
0.000000
 11
5.151599
 21
7.373047
 31
0.000000
  6
CONTINUOUS
  0
LINE
  8
WHITE
 10
5.151599
 20
7.373047
 30
0.000000
 11
4.436422
 21
7.793739
 31
0.000000
  6
CONTINUOUS
  0
LINE
  8
WHITE
 10
4.413363
 20
1.160840
 30
0.000000
 11
5.099533
 21
1.562500
 31
0.000000
  6
CONTINUOUS
  0
LINE
  8
WHITE
 10
5.099533
 20
1.562500
 30
0.000000
 11
5.975033
 21
1.562500
 31
0.000000
  6
CONTINUOUS
  0
LINE
  8
WHITE
 10
5.975033
 20
1.562500
 30
0.000000
 11
6.409672
 21
2.337291
 31
0.000000
  6
CONTINUOUS
  0
LINE
  8
WHITE
 10
6.409672
 20
2.337291
 30
0.000000
 11
7.170980
 21
2.745797
 31
0.000000
  6
CONTINUOUS
  0
LINE
  8
WHITE
 10
7.170980
 20
2.745797
 30
0.000000
 11
7.170980
 21
3.605472
 31
0.000000
  6
CONTINUOUS
  0
LINE
  8
WHITE
 10
7.170980
 20
3.605472
 30
0.000000
 11
7.606796
 21
4.363412
 31
0.000000
  6
CONTINUOUS
  0
LINE
  8
WHITE
 10
7.606796
 20
4.363412
 30
0.000000
 11
7.170980
 21
5.140301
 31
0.000000
  6
CONTINUOUS
  0
LINE
  8
WHITE
 10
7.170980
 20
5.140301
 30
0.000000
 11
7.170980
 21
5.986711
 31
0.000000
  6
CONTINUOUS
  0
LINE
  8
WHITE
 10
7.170980
 20
5.986711
 30
0.000000
 11
6.378375
 21
6.439628
 31
0.000000
  6
CONTINUOUS
  0
LINE
  8
WHITE
 10
6.378375
 20
6.439628
 30
0.000000
 11
5.964315
 21
7.177734
 31
0.000000
  6
CONTINUOUS
  0
LINE
  8
WHITE
 10
5.964315
 20
7.177734
 30
0.000000
 11
5.098414
 21
7.177734
 31
0.000000
  6
CONTINUOUS
  0
LINE
  8
WHITE
 10
5.098414
 20
7.177734
 30
0.000000
 11
4.436422
 21
7.567141
 31
0.000000
  6
CONTINUOUS
  0
LINE
  8
WHITE
 10
4.413363
 20
1.387154
 30
0.000000
 11
5.046572
 21
1.757813
 31
0.000000
  6
CONTINUOUS
  0
LINE
  8
WHITE
 10
5.046572
 20
1.757813
 30
0.000000
 11
5.860654
 21
1.757813
 31
0.000000
  6
CONTINUOUS
  0
LINE
  8
WHITE
 10
5.860654
 20
1.757813
 30
0.000000
 11
6.267176
 21
2.482483
 31
0.000000
  6
CONTINUOUS
  0
LINE
  8
WHITE
 10
6.267176
 20
2.482483
 30
0.000000
 11
6.975668
 21
2.862649
 31
0.000000
  6
CONTINUOUS
  0
LINE
  8
WHITE
 10
6.975668
 20
2.862649
 30
0.000000
 11
6.975668
 21
3.657622
 31
0.000000
  6
CONTINUOUS
  0
LINE
  8
WHITE
 10
6.975668
 20
3.657622
 30
0.000000
 11
7.382182
 21
4.364603
 31
0.000000
  6
CONTINUOUS
  0
LINE
  8
WHITE
 10
7.382182
 20
4.364603
 30
0.000000
 11
6.975668
 21
5.089259
 31
0.000000
  6
CONTINUOUS
  0
LINE
  8
WHITE
 10
6.975668
 20
5.089259
 30
0.000000
 11
6.975668
 21
5.873366
 31
0.000000
  6
CONTINUOUS
  0
LINE
  8
WHITE
 10
6.975668
 20
5.873366
 30
0.000000
 11
6.234502
 21
6.296890
 31
0.000000
  6
CONTINUOUS
  0
LINE
  8
WHITE
 10
6.234502
 20
6.296890
 30
0.000000
 11
5.849935
 21
6.982422
 31
0.000000
  6
CONTINUOUS
  0
LINE
  8
WHITE
 10
5.849935
 20
6.982422
 30
0.000000
 11
5.045229
 21
6.982422
 31
0.000000
  6
CONTINUOUS
  0
LINE
  8
WHITE
 10
5.045229
 20
6.982422
 30
0.000000
 11
4.436422
 21
7.340543
 31
0.000000
  6
CONTINUOUS
  0
LINE
  8
WHITE
 10
4.413363
 20
1.613468
 30
0.000000
 11
4.993610
 21
1.953125
 31
0.000000
  6
CONTINUOUS
  0
LINE
  8
WHITE
 10
4.993610
 20
1.953125
 30
0.000000
 11
5.746274
 21
1.953125
 31
0.000000
  6
CONTINUOUS
  0
LINE
  8
WHITE
 10
5.746274
 20
1.953125
 30
0.000000
 11
6.124680
 21
2.627675
 31
0.000000
  6
CONTINUOUS
  0
LINE
  8
WHITE
 10
6.124680
 20
2.627675
 30
0.000000
 11
6.780355
 21
2.979501
 31
0.000000
  6
CONTINUOUS
  0
LINE
  8
WHITE
 10
6.780355
 20
2.979501
 30
0.000000
 11
6.780355
 21
3.709771
 31
0.000000
  6
CONTINUOUS
  0
LINE
  8
WHITE
 10
6.780355
 20
3.709771
 30
0.000000
 11
7.157569
 21
4.365794
 31
0.000000
  6
CONTINUOUS
  0
LINE
  8
WHITE
 10
7.157569
 20
4.365794
 30
0.000000
 11
6.780355
 21
5.038218
 31
0.000000
  6
CONTINUOUS
  0
LINE
  8
WHITE
 10
6.780355
 20
5.038218
 30
0.000000
 11
6.780355
 21
5.760022
 31
0.000000
  6
CONTINUOUS
  0
LINE
  8
WHITE
 10
6.780355
 20
5.760022
 30
0.000000
 11
6.090629
 21
6.154152
 31
0.000000
  6
CONTINUOUS
  0
LINE
  8
WHITE
 10
6.090629
 20
6.154152
 30
0.000000
 11
5.735555
 21
6.787109
 31
0.000000
  6
CONTINUOUS
  0
LINE
  8
WHITE
 10
5.735555
 20
6.787109
 30
0.000000
 11
4.992043
 21
6.787109
 31
0.000000
  6
CONTINUOUS
  0
LINE
  8
WHITE
 10
4.992043
 20
6.787109
 30
0.000000
 11
4.436422
 21
7.113945
 31
0.000000
  6
CONTINUOUS
  0
LINE
  8
WHITE
 10
4.413363
 20
1.839783
 30
0.000000
 11
4.940649
 21
2.148438
 31
0.000000
  6
CONTINUOUS
  0
LINE
  8
WHITE
 10
4.940649
 20
2.148438
 30
0.000000
 11
5.631894
 21
2.148438
 31
0.000000
  6
CONTINUOUS
  0
LINE
  8
WHITE
 10
5.631894
 20
2.148438
 30
0.000000
 11
5.982184
 21
2.772868
 31
0.000000
  6
CONTINUOUS
  0
LINE
  8
WHITE
 10
5.982184
 20
2.772868
 30
0.000000
 11
6.585043
 21
3.096353
 31
0.000000
  6
CONTINUOUS
  0
LINE
  8
WHITE
 10
6.585043
 20
3.096353
 30
0.000000
 11
6.585043
 21
3.761920
 31
0.000000
  6
CONTINUOUS
  0
LINE
  8
WHITE
 10
6.585043
 20
3.761920
 30
0.000000
 11
6.932955
 21
4.366985
 31
0.000000
  6
CONTINUOUS
  0
LINE
  8
WHITE
 10
6.932955
 20
4.366985
 30
0.000000
 11
6.585043
 21
4.987176
 31
0.000000
  6
CONTINUOUS
  0
LINE
  8
WHITE
 10
6.585043
 20
4.987176
 30
0.000000
 11
6.585043
 21
5.646678
 31
0.000000
  6
CONTINUOUS
  0
LINE
  8
WHITE
 10
6.585043
 20
5.646678
 30
0.000000
 11
5.946756
 21
6.011413
 31
0.000000
  6
CONTINUOUS
  0
LINE
  8
WHITE
 10
5.946756
 20
6.011413
 30
0.000000
 11
5.621175
 21
6.591797
 31
0.000000
  6
CONTINUOUS
  0
LINE
  8
WHITE
 10
5.621175
 20
6.591797
 30
0.000000
 11
4.938858
 21
6.591797
 31
0.000000
  6
CONTINUOUS
  0
LINE
  8
WHITE
 10
4.938858
 20
6.591797
 30
0.000000
 11
4.436422
 21
6.887347
 31
0.000000
  6
CONTINUOUS
  0
LINE
  8
WHITE
 10
4.607504
 20
5.639648
 30
0.000000
 11
4.778402
 21
5.590820
 31
0.000000
  6
CONTINUOUS
  0
LINE
  8
WHITE
 10
4.778402
 20
5.590820
 30
0.000000
 11
4.924887
 21
5.444336
 31
0.000000
  6
CONTINUOUS
  0
ENDSEC
  0
EOF
