  0
SECTION
  2
HEADER
  9
$ACADVER
  1
AC1018
  9
$ACADMAINTVER
 70
     0
  9
$DWGCODEPAGE
  3
ANSI_1256
  9
$INSBASE
 10
0.0
 20
0.0
 30
0.0
  9
$EXTMIN
 10
1.000000000000000E+20
 20
1.000000000000000E+20
 30
1.000000000000000E+20
  9
$EXTMAX
 10
-1.000000000000000E+20
 20
-1.000000000000000E+20
 30
-1.000000000000000E+20
  9
$LIMMIN
 10
0.0
 20
0.0
  9
$LIMMAX
 10
12.0
 20
9.0
  9
$ORTHOMODE
 70
     0
  9
$REGENMODE
 70
     1
  9
$FILLMODE
 70
     1
  9
$QTEXTMODE
 70
     0
  9
$MIRRTEXT
 70
     1
  9
$LTSCALE
 40
1.0
  9
$ATTMODE
 70
     1
  9
$TEXTSIZE
 40
0.2
  9
$TRACEWID
 40
0.05
  9
$TEXTSTYLE
  7
Standard
  9
$CLAYER
  8
0
  9
$CELTYPE
  6
ByLayer
  9
$CECOLOR
 62
   256
  9
$CELTSCALE
 40
1.0
  9
$DISPSILH
 70
     0
  9
$DIMSCALE
 40
1.0
  9
$DIMASZ
 40
0.18
  9
$DIMEXO
 40
0.0625
  9
$DIMDLI
 40
0.38
  9
$DIMRND
 40
0.0
  9
$DIMDLE
 40
0.0
  9
$DIMEXE
 40
0.18
  9
$DIMTP
 40
0.0
  9
$DIMTM
 40
0.0
  9
$DIMTXT
 40
0.18
  9
$DIMCEN
 40
0.09
  9
$DIMTSZ
 40
0.0
  9
$DIMTOL
 70
     0
  9
$DIMLIM
 70
     0
  9
$DIMTIH
 70
     1
  9
$DIMTOH
 70
     1
  9
$DIMSE1
 70
     0
  9
$DIMSE2
 70
     0
  9
$DIMTAD
 70
     0
  9
$DIMZIN
 70
     0
  9
$DIMBLK
  1

  9
$DIMASO
 70
     1
  9
$DIMSHO
 70
     1
  9
$DIMPOST
  1

  9
$DIMAPOST
  1

  9
$DIMALT
 70
     0
  9
$DIMALTD
 70
     2
  9
$DIMALTF
 40
25.4
  9
$DIMLFAC
 40
1.0
  9
$DIMTOFL
 70
     0
  9
$DIMTVP
 40
0.0
  9
$DIMTIX
 70
     0
  9
$DIMSOXD
 70
     0
  9
$DIMSAH
 70
     0
  9
$DIMBLK1
  1

  9
$DIMBLK2
  1

  9
$DIMSTYLE
  2
Standard
  9
$DIMCLRD
 70
     0
  9
$DIMCLRE
 70
     0
  9
$DIMCLRT
 70
     0
  9
$DIMTFAC
 40
1.0
  9
$DIMGAP
 40
0.09
  9
$DIMJUST
 70
     0
  9
$DIMSD1
 70
     0
  9
$DIMSD2
 70
     0
  9
$DIMTOLJ
 70
     1
  9
$DIMTZIN
 70
     0
  9
$DIMALTZ
 70
     0
  9
$DIMALTTZ
 70
     0
  9
$DIMUPT
 70
     0
  9
$DIMDEC
 70
     4
  9
$DIMTDEC
 70
     4
  9
$DIMALTU
 70
     2
  9
$DIMALTTD
 70
     2
  9
$DIMTXSTY
  7
Standard
  9
$DIMAUNIT
 70
     0
  9
$DIMADEC
 70
     0
  9
$DIMALTRND
 40
0.0
  9
$DIMAZIN
 70
     0
  9
$DIMDSEP
 70
    46
  9
$DIMATFIT
 70
     3
  9
$DIMFRAC
 70
     0
  9
$DIMLDRBLK
  1

  9
$DIMLUNIT
 70
     2
  9
$DIMLWD
 70
    -2
  9
$DIMLWE
 70
    -2
  9
$DIMTMOVE
 70
     0
  9
$LUNITS
 70
     2
  9
$LUPREC
 70
     4
  9
$SKETCHINC
 40
0.1
  9
$FILLETRAD
 40
0.5
  9
$AUNITS
 70
     0
  9
$AUPREC
 70
     0
  9
$MENU
  1
.
  9
$ELEVATION
 40
0.0
  9
$PELEVATION
 40
0.0
  9
$THICKNESS
 40
0.0
  9
$LIMCHECK
 70
     0
  9
$CHAMFERA
 40
0.5
  9
$CHAMFERB
 40
0.5
  9
$CHAMFERC
 40
1.0
  9
$CHAMFERD
 40
0.0
  9
$SKPOLY
 70
     0
  9
$TDCREATE
 40
2458020.903830625
  9
$TDUCREATE
 40
2458020.778830625
  9
$TDUPDATE
 40
2458020.903830637
  9
$TDUUPDATE
 40
2458020.778830637
  9
$TDINDWG
 40
0.0000000116
  9
$TDUSRTIMER
 40
0.0000000116
  9
$USRTIMER
 70
     1
  9
$ANGBASE
 50
0.0
  9
$ANGDIR
 70
     0
  9
$PDMODE
 70
     0
  9
$PDSIZE
 40
0.0
  9
$PLINEWID
 40
0.0
  9
$SPLFRAME
 70
     0
  9
$SPLINETYPE
 70
     6
  9
$SPLINESEGS
 70
     8
  9
$HANDSEED
  5
18C
  9
$SURFTAB1
 70
     6
  9
$SURFTAB2
 70
     6
  9
$SURFTYPE
 70
     6
  9
$SURFU
 70
     6
  9
$SURFV
 70
     6
  9
$UCSBASE
  2

  9
$UCSNAME
  2

  9
$UCSORG
 10
0.0
 20
0.0
 30
0.0
  9
$UCSXDIR
 10
1.0
 20
0.0
 30
0.0
  9
$UCSYDIR
 10
0.0
 20
1.0
 30
0.0
  9
$UCSORTHOREF
  2

  9
$UCSORTHOVIEW
 70
     0
  9
$UCSORGTOP
 10
0.0
 20
0.0
 30
0.0
  9
$UCSORGBOTTOM
 10
0.0
 20
0.0
 30
0.0
  9
$UCSORGLEFT
 10
0.0
 20
0.0
 30
0.0
  9
$UCSORGRIGHT
 10
0.0
 20
0.0
 30
0.0
  9
$UCSORGFRONT
 10
0.0
 20
0.0
 30
0.0
  9
$UCSORGBACK
 10
0.0
 20
0.0
 30
0.0
  9
$PUCSBASE
  2

  9
$PUCSNAME
  2

  9
$PUCSORG
 10
0.0
 20
0.0
 30
0.0
  9
$PUCSXDIR
 10
1.0
 20
0.0
 30
0.0
  9
$PUCSYDIR
 10
0.0
 20
1.0
 30
0.0
  9
$PUCSORTHOREF
  2

  9
$PUCSORTHOVIEW
 70
     0
  9
$PUCSORGTOP
 10
0.0
 20
0.0
 30
0.0
  9
$PUCSORGBOTTOM
 10
0.0
 20
0.0
 30
0.0
  9
$PUCSORGLEFT
 10
0.0
 20
0.0
 30
0.0
  9
$PUCSORGRIGHT
 10
0.0
 20
0.0
 30
0.0
  9
$PUCSORGFRONT
 10
0.0
 20
0.0
 30
0.0
  9
$PUCSORGBACK
 10
0.0
 20
0.0
 30
0.0
  9
$USERI1
 70
     0
  9
$USERI2
 70
     0
  9
$USERI3
 70
     0
  9
$USERI4
 70
     0
  9
$USERI5
 70
     0
  9
$USERR1
 40
0.0
  9
$USERR2
 40
0.0
  9
$USERR3
 40
0.0
  9
$USERR4
 40
0.0
  9
$USERR5
 40
0.0
  9
$WORLDVIEW
 70
     1
  9
$SHADEDGE
 70
     3
  9
$SHADEDIF
 70
    70
  9
$TILEMODE
 70
     1
  9
$MAXACTVP
 70
    64
  9
$PINSBASE
 10
0.0
 20
0.0
 30
0.0
  9
$PLIMCHECK
 70
     0
  9
$PEXTMIN
 10
1.000000000000000E+20
 20
1.000000000000000E+20
 30
1.000000000000000E+20
  9
$PEXTMAX
 10
-1.000000000000000E+20
 20
-1.000000000000000E+20
 30
-1.000000000000000E+20
  9
$PLIMMIN
 10
0.0
 20
0.0
  9
$PLIMMAX
 10
12.0
 20
9.0
  9
$UNITMODE
 70
     0
  9
$VISRETAIN
 70
     1
  9
$PLINEGEN
 70
     0
  9
$PSLTSCALE
 70
     1
  9
$TREEDEPTH
 70
  3020
  9
$CMLSTYLE
  2
Standard
  9
$CMLJUST
 70
     0
  9
$CMLSCALE
 40
1.0
  9
$PROXYGRAPHICS
 70
     1
  9
$MEASUREMENT
 70
     0
  9
$CELWEIGHT
370
    -1
  9
$ENDCAPS
280
     0
  9
$JOINSTYLE
280
     0
  9
$LWDISPLAY
290
     1
  9
$INSUNITS
 70
     1
  9
$HYPERLINKBASE
  1

  9
$STYLESHEET
  1

  9
$XEDIT
290
     1
  9
$CEPSNTYPE
380
     0
  9
$PSTYLEMODE
290
     1
  9
$FINGERPRINTGUID
  2
{FEBB5603-EA0C-42AE-B14A-AA5E2325861F}
  9
$VERSIONGUID
  2
{FAEB1C32-E019-11D5-929B-00C0DF256EC4}
  9
$EXTNAMES
290
     1
  9
$PSVPSCALE
 40
0.0
  9
$OLESTARTUP
290
     0
  9
$SORTENTS
280
   127
  9
$INDEXCTL
280
     0
  9
$HIDETEXT
280
     1
  9
$XCLIPFRAME
290
     0
  9
$HALOGAP
280
     0
  9
$OBSCOLOR
 70
   257
  9
$OBSLTYPE
280
     0
  9
$INTERSECTIONDISPLAY
280
     0
  9
$INTERSECTIONCOLOR
 70
   257
  9
$DIMASSOC
280
     2
  9
$PROJECTNAME
  1

  0
ENDSEC
  0
SECTION
  2
CLASSES
  0
CLASS
  1
ACDBDICTIONARYWDFLT
  2
AcDbDictionaryWithDefault
  3
ObjectDBX Classes
 90
        0
 91
        3
280
     0
281
     0
  0
CLASS
  1
VISUALSTYLE
  2
AcDbVisualStyle
  3
ObjectDBX Classes
 90
     4095
 91
        3
280
     0
281
     0
  0
ENDSEC
  0
SECTION
  2
TABLES
  0
TABLE
  2
VPORT
  5
8
330
0
100
AcDbSymbolTable
 70
     1
  0
VPORT
  5
29
330
8
100
AcDbSymbolTableRecord
100
AcDbViewportTableRecord
  2
*Active
 70
     0
 10
0.0
 20
0.0
 11
1.0
 21
1.0
 12
0.0
 22
0.0
 13
0.0
 23
0.0
 14
0.5
 24
0.5
 15
0.5
 25
0.5
 16
0.0
 26
0.0
 36
1.0
 17
148.4999796178229
 27
105.0008259828644
 37
0.0
 40
210.0016519657288
 41
1.414274394775308
 42
50.0
 43
0.0
 44
0.0
 50
0.0
 51
0.0
 71
     0
 72
   100
 73
     1
 74
     3
 75
     0
 76
     0
 77
     0
 78
     0
281
     0
 65
     1
110
0.0
120
0.0
130
0.0
111
1.0
121
0.0
131
0.0
112
0.0
122
1.0
132
0.0
 79
     0
146
0.0
  0
ENDTAB
  0
TABLE
  2
LTYPE
  5
5
330
0
100
AcDbSymbolTable
 70
    31
  0
LTYPE
  5
14
330
5
100
AcDbSymbolTableRecord
100
AcDbLinetypeTableRecord
  2
ByBlock
 70
     0
  3

 72
    65
 73
     0
 40
0.0
  0
LTYPE
  5
15
330
5
100
AcDbSymbolTableRecord
100
AcDbLinetypeTableRecord
  2
ByLayer
 70
     0
  3

 72
    65
 73
     0
 40
0.0
  0
LTYPE
  5
16
330
5
100
AcDbSymbolTableRecord
100
AcDbLinetypeTableRecord
  2
Continuous
 70
     0
  3
Solid line
 72
    65
 73
     0
 40
0.0
  0
LTYPE
  5
7F
330
5
100
AcDbSymbolTableRecord
100
AcDbLinetypeTableRecord
  2
AI-Linetype-1
 70
     0
  3
Adobe Illustrator Linetype No. 1
 72
    65
 73
     2
 40
1.05833333306875
 49
0.3527777776895833
 74
     0
 49
-0.7055555553791667
 74
     0
  0
LTYPE
  5
81
330
5
100
AcDbSymbolTableRecord
100
AcDbLinetypeTableRecord
  2
AI-Linetype-2
 70
     0
  3
Adobe Illustrator Linetype No. 2
 72
    65
 73
     2
 40
1.05833333306875
 49
0.3527777776895833
 74
     0
 49
-0.7055555553791667
 74
     0
  0
LTYPE
  5
83
330
5
100
AcDbSymbolTableRecord
100
AcDbLinetypeTableRecord
  2
AI-Linetype-3
 70
     0
  3
Adobe Illustrator Linetype No. 3
 72
    65
 73
     2
 40
1.05833333306875
 49
0.3527777776895833
 74
     0
 49
-0.7055555553791667
 74
     0
  0
LTYPE
  5
85
330
5
100
AcDbSymbolTableRecord
100
AcDbLinetypeTableRecord
  2
AI-Linetype-4
 70
     0
  3
Adobe Illustrator Linetype No. 4
 72
    65
 73
     2
 40
1.05833333306875
 49
0.3527777776895833
 74
     0
 49
-0.7055555553791667
 74
     0
  0
LTYPE
  5
93
330
5
100
AcDbSymbolTableRecord
100
AcDbLinetypeTableRecord
  2
AI-Linetype-5
 70
     0
  3
Adobe Illustrator Linetype No. 5
 72
    65
 73
     2
 40
1.05833333306875
 49
0.3527777776895833
 74
     0
 49
-0.7055555553791667
 74
     0
  0
LTYPE
  5
95
330
5
100
AcDbSymbolTableRecord
100
AcDbLinetypeTableRecord
  2
AI-Linetype-6
 70
     0
  3
Adobe Illustrator Linetype No. 6
 72
    65
 73
     2
 40
1.05833333306875
 49
0.3527777776895833
 74
     0
 49
-0.7055555553791667
 74
     0
  0
LTYPE
  5
A4
330
5
100
AcDbSymbolTableRecord
100
AcDbLinetypeTableRecord
  2
AI-Linetype-7
 70
     0
  3
Adobe Illustrator Linetype No. 7
 72
    65
 73
     2
 40
1.05833333306875
 49
0.3527777776895833
 74
     0
 49
-0.7055555553791667
 74
     0
  0
LTYPE
  5
AC
330
5
100
AcDbSymbolTableRecord
100
AcDbLinetypeTableRecord
  2
AI-Linetype-8
 70
     0
  3
Adobe Illustrator Linetype No. 8
 72
    65
 73
     2
 40
1.05833333306875
 49
0.3527777776895833
 74
     0
 49
-0.7055555553791667
 74
     0
  0
LTYPE
  5
B8
330
5
100
AcDbSymbolTableRecord
100
AcDbLinetypeTableRecord
  2
AI-Linetype-9
 70
     0
  3
Adobe Illustrator Linetype No. 9
 72
    65
 73
     2
 40
1.05833333306875
 49
0.3527777776895833
 74
     0
 49
-0.7055555553791667
 74
     0
  0
LTYPE
  5
C0
330
5
100
AcDbSymbolTableRecord
100
AcDbLinetypeTableRecord
  2
AI-Linetype-10
 70
     0
  3
Adobe Illustrator Linetype No. 10
 72
    65
 73
     2
 40
1.05833333306875
 49
0.3527777776895833
 74
     0
 49
-0.7055555553791667
 74
     0
  0
LTYPE
  5
D1
330
5
100
AcDbSymbolTableRecord
100
AcDbLinetypeTableRecord
  2
AI-Linetype-11
 70
     0
  3
Adobe Illustrator Linetype No. 11
 72
    65
 73
     2
 40
1.05833333306875
 49
0.3527777776895833
 74
     0
 49
-0.7055555553791667
 74
     0
  0
LTYPE
  5
D9
330
5
100
AcDbSymbolTableRecord
100
AcDbLinetypeTableRecord
  2
AI-Linetype-12
 70
     0
  3
Adobe Illustrator Linetype No. 12
 72
    65
 73
     2
 40
1.05833333306875
 49
0.3527777776895833
 74
     0
 49
-0.7055555553791667
 74
     0
  0
LTYPE
  5
E5
330
5
100
AcDbSymbolTableRecord
100
AcDbLinetypeTableRecord
  2
AI-Linetype-13
 70
     0
  3
Adobe Illustrator Linetype No. 13
 72
    65
 73
     2
 40
1.05833333306875
 49
0.3527777776895833
 74
     0
 49
-0.7055555553791667
 74
     0
  0
LTYPE
  5
ED
330
5
100
AcDbSymbolTableRecord
100
AcDbLinetypeTableRecord
  2
AI-Linetype-14
 70
     0
  3
Adobe Illustrator Linetype No. 14
 72
    65
 73
     2
 40
1.05833333306875
 49
0.3527777776895833
 74
     0
 49
-0.7055555553791667
 74
     0
  0
LTYPE
  5
F8
330
5
100
AcDbSymbolTableRecord
100
AcDbLinetypeTableRecord
  2
AI-Linetype-15
 70
     0
  3
Adobe Illustrator Linetype No. 15
 72
    65
 73
     2
 40
1.05833333306875
 49
0.3527777776895833
 74
     0
 49
-0.7055555553791667
 74
     0
  0
LTYPE
  5
100
330
5
100
AcDbSymbolTableRecord
100
AcDbLinetypeTableRecord
  2
AI-Linetype-16
 70
     0
  3
Adobe Illustrator Linetype No. 16
 72
    65
 73
     2
 40
1.05833333306875
 49
0.3527777776895833
 74
     0
 49
-0.7055555553791667
 74
     0
  0
LTYPE
  5
10C
330
5
100
AcDbSymbolTableRecord
100
AcDbLinetypeTableRecord
  2
AI-Linetype-17
 70
     0
  3
Adobe Illustrator Linetype No. 17
 72
    65
 73
     2
 40
1.05833333306875
 49
0.3527777776895833
 74
     0
 49
-0.7055555553791667
 74
     0
  0
LTYPE
  5
114
330
5
100
AcDbSymbolTableRecord
100
AcDbLinetypeTableRecord
  2
AI-Linetype-18
 70
     0
  3
Adobe Illustrator Linetype No. 18
 72
    65
 73
     2
 40
1.05833333306875
 49
0.3527777776895833
 74
     0
 49
-0.7055555553791667
 74
     0
  0
LTYPE
  5
120
330
5
100
AcDbSymbolTableRecord
100
AcDbLinetypeTableRecord
  2
AI-Linetype-19
 70
     0
  3
Adobe Illustrator Linetype No. 19
 72
    65
 73
     2
 40
1.05833333306875
 49
0.3527777776895833
 74
     0
 49
-0.7055555553791667
 74
     0
  0
LTYPE
  5
128
330
5
100
AcDbSymbolTableRecord
100
AcDbLinetypeTableRecord
  2
AI-Linetype-20
 70
     0
  3
Adobe Illustrator Linetype No. 20
 72
    65
 73
     2
 40
1.05833333306875
 49
0.3527777776895833
 74
     0
 49
-0.7055555553791667
 74
     0
  0
LTYPE
  5
134
330
5
100
AcDbSymbolTableRecord
100
AcDbLinetypeTableRecord
  2
AI-Linetype-21
 70
     0
  3
Adobe Illustrator Linetype No. 21
 72
    65
 73
     2
 40
1.05833333306875
 49
0.3527777776895833
 74
     0
 49
-0.7055555553791667
 74
     0
  0
LTYPE
  5
13C
330
5
100
AcDbSymbolTableRecord
100
AcDbLinetypeTableRecord
  2
AI-Linetype-22
 70
     0
  3
Adobe Illustrator Linetype No. 22
 72
    65
 73
     2
 40
1.05833333306875
 49
0.3527777776895833
 74
     0
 49
-0.7055555553791667
 74
     0
  0
LTYPE
  5
149
330
5
100
AcDbSymbolTableRecord
100
AcDbLinetypeTableRecord
  2
AI-Linetype-23
 70
     0
  3
Adobe Illustrator Linetype No. 23
 72
    65
 73
     2
 40
1.05833333306875
 49
0.3527777776895833
 74
     0
 49
-0.7055555553791667
 74
     0
  0
LTYPE
  5
151
330
5
100
AcDbSymbolTableRecord
100
AcDbLinetypeTableRecord
  2
AI-Linetype-24
 70
     0
  3
Adobe Illustrator Linetype No. 24
 72
    65
 73
     2
 40
1.05833333306875
 49
0.3527777776895833
 74
     0
 49
-0.7055555553791667
 74
     0
  0
LTYPE
  5
15D
330
5
100
AcDbSymbolTableRecord
100
AcDbLinetypeTableRecord
  2
AI-Linetype-25
 70
     0
  3
Adobe Illustrator Linetype No. 25
 72
    65
 73
     2
 40
1.05833333306875
 49
0.3527777776895833
 74
     0
 49
-0.7055555553791667
 74
     0
  0
LTYPE
  5
165
330
5
100
AcDbSymbolTableRecord
100
AcDbLinetypeTableRecord
  2
AI-Linetype-26
 70
     0
  3
Adobe Illustrator Linetype No. 26
 72
    65
 73
     2
 40
1.05833333306875
 49
0.3527777776895833
 74
     0
 49
-0.7055555553791667
 74
     0
  0
LTYPE
  5
171
330
5
100
AcDbSymbolTableRecord
100
AcDbLinetypeTableRecord
  2
AI-Linetype-27
 70
     0
  3
Adobe Illustrator Linetype No. 27
 72
    65
 73
     2
 40
1.05833333306875
 49
0.3527777776895833
 74
     0
 49
-0.7055555553791667
 74
     0
  0
LTYPE
  5
179
330
5
100
AcDbSymbolTableRecord
100
AcDbLinetypeTableRecord
  2
AI-Linetype-28
 70
     0
  3
Adobe Illustrator Linetype No. 28
 72
    65
 73
     2
 40
1.05833333306875
 49
0.3527777776895833
 74
     0
 49
-0.7055555553791667
 74
     0
  0
LTYPE
  5
17E
330
5
100
AcDbSymbolTableRecord
100
AcDbLinetypeTableRecord
  2
AI-Linetype-29
 70
     0
  3
Adobe Illustrator Linetype No. 29
 72
    65
 73
     2
 40
1.05833333306875
 49
0.3527777776895833
 74
     0
 49
-0.7055555553791667
 74
     0
  0
LTYPE
  5
183
330
5
100
AcDbSymbolTableRecord
100
AcDbLinetypeTableRecord
  2
AI-Linetype-30
 70
     0
  3
Adobe Illustrator Linetype No. 30
 72
    65
 73
     2
 40
1.05833333306875
 49
0.3527777776895833
 74
     0
 49
-0.7055555553791667
 74
     0
  0
ENDTAB
  0
TABLE
  2
LAYER
  5
2
330
0
100
AcDbSymbolTable
 70
     2
  0
LAYER
  5
10
330
2
100
AcDbSymbolTableRecord
100
AcDbLayerTableRecord
  2
0
 70
     0
 62
     7
  6
Continuous
370
    -3
390
F
  0
LAYER
  5
3B
330
2
100
AcDbSymbolTableRecord
100
AcDbLayerTableRecord
  2
Layer 2
 70
     0
 62
     7
  6
Continuous
370
    -3
390
F
  0
ENDTAB
  0
TABLE
  2
STYLE
  5
3
330
0
100
AcDbSymbolTable
 70
     1
  0
STYLE
  5
11
330
3
100
AcDbSymbolTableRecord
100
AcDbTextStyleTableRecord
  2
Standard
 70
     0
 40
0.0
 41
1.0
 50
0.0
 71
     0
 42
0.2
  3
txt
  4

  0
ENDTAB
  0
TABLE
  2
VIEW
  5
6
330
0
100
AcDbSymbolTable
 70
     0
  0
ENDTAB
  0
TABLE
  2
UCS
  5
7
330
0
100
AcDbSymbolTable
 70
     0
  0
ENDTAB
  0
TABLE
  2
APPID
  5
9
330
0
100
AcDbSymbolTable
 70
     1
  0
APPID
  5
12
330
9
100
AcDbSymbolTableRecord
100
AcDbRegAppTableRecord
  2
ACAD
 70
     0
  0
ENDTAB
  0
TABLE
  2
DIMSTYLE
  5
A
330
0
100
AcDbSymbolTable
 70
     1
100
AcDbDimStyleTable
  0
DIMSTYLE
105
27
330
A
100
AcDbSymbolTableRecord
100
AcDbDimStyleTableRecord
  2
Standard
 70
     0
340
11
  0
ENDTAB
  0
TABLE
  2
BLOCK_RECORD
  5
1
330
0
100
AcDbSymbolTable
 70
    50
  0
BLOCK_RECORD
  5
1F
330
1
100
AcDbSymbolTableRecord
100
AcDbBlockTableRecord
  2
*Model_Space
340
22
  0
BLOCK_RECORD
  5
1B
330
1
100
AcDbSymbolTableRecord
100
AcDbBlockTableRecord
  2
*Paper_Space
340
1E
  0
BLOCK_RECORD
  5
23
330
1
100
AcDbSymbolTableRecord
100
AcDbBlockTableRecord
  2
*Paper_Space0
340
26
  0
BLOCK_RECORD
  5
3C
330
1
100
AcDbSymbolTableRecord
100
AcDbBlockTableRecord
  2
block 2
340
0
102
{BLKREFS
331
3D
102
}
  0
BLOCK_RECORD
  5
40
330
1
100
AcDbSymbolTableRecord
100
AcDbBlockTableRecord
  2
block 3
340
0
102
{BLKREFS
331
41
102
}
  0
BLOCK_RECORD
  5
44
330
1
100
AcDbSymbolTableRecord
100
AcDbBlockTableRecord
  2
block 4
340
0
102
{BLKREFS
331
45
102
}
  0
BLOCK_RECORD
  5
4A
330
1
100
AcDbSymbolTableRecord
100
AcDbBlockTableRecord
  2
block 5
340
0
102
{BLKREFS
331
4B
102
}
  0
BLOCK_RECORD
  5
50
330
1
100
AcDbSymbolTableRecord
100
AcDbBlockTableRecord
  2
block 6
340
0
102
{BLKREFS
331
51
102
}
  0
BLOCK_RECORD
  5
56
330
1
100
AcDbSymbolTableRecord
100
AcDbBlockTableRecord
  2
block 7
340
0
102
{BLKREFS
331
57
102
}
  0
BLOCK_RECORD
  5
5A
330
1
100
AcDbSymbolTableRecord
100
AcDbBlockTableRecord
  2
block 8
340
0
102
{BLKREFS
331
5B
102
}
  0
BLOCK_RECORD
  5
60
330
1
100
AcDbSymbolTableRecord
100
AcDbBlockTableRecord
  2
block 9
340
0
102
{BLKREFS
331
61
102
}
  0
BLOCK_RECORD
  5
66
330
1
100
AcDbSymbolTableRecord
100
AcDbBlockTableRecord
  2
block 10
340
0
102
{BLKREFS
331
67
102
}
  0
BLOCK_RECORD
  5
6A
330
1
100
AcDbSymbolTableRecord
100
AcDbBlockTableRecord
  2
block 11
340
0
102
{BLKREFS
331
6B
102
}
  0
BLOCK_RECORD
  5
70
330
1
100
AcDbSymbolTableRecord
100
AcDbBlockTableRecord
  2
block 12
340
0
102
{BLKREFS
331
71
102
}
  0
BLOCK_RECORD
  5
78
330
1
100
AcDbSymbolTableRecord
100
AcDbBlockTableRecord
  2
block 13
340
0
102
{BLKREFS
331
79
102
}
  0
BLOCK_RECORD
  5
86
330
1
100
AcDbSymbolTableRecord
100
AcDbBlockTableRecord
  2
block 14
340
0
102
{BLKREFS
331
87
102
}
  0
BLOCK_RECORD
  5
8E
330
1
100
AcDbSymbolTableRecord
100
AcDbBlockTableRecord
  2
block 15
340
0
102
{BLKREFS
331
8F
102
}
  0
BLOCK_RECORD
  5
96
330
1
100
AcDbSymbolTableRecord
100
AcDbBlockTableRecord
  2
block 16
340
0
102
{BLKREFS
331
97
102
}
  0
BLOCK_RECORD
  5
9A
330
1
100
AcDbSymbolTableRecord
100
AcDbBlockTableRecord
  2
block 17
340
0
102
{BLKREFS
331
9B
102
}
  0
BLOCK_RECORD
  5
9E
330
1
100
AcDbSymbolTableRecord
100
AcDbBlockTableRecord
  2
block 18
340
0
102
{BLKREFS
331
9F
102
}
  0
BLOCK_RECORD
  5
A6
330
1
100
AcDbSymbolTableRecord
100
AcDbBlockTableRecord
  2
block 19
340
0
102
{BLKREFS
331
A7
102
}
  0
BLOCK_RECORD
  5
AE
330
1
100
AcDbSymbolTableRecord
100
AcDbBlockTableRecord
  2
block 20
340
0
102
{BLKREFS
331
AF
102
}
  0
BLOCK_RECORD
  5
B2
330
1
100
AcDbSymbolTableRecord
100
AcDbBlockTableRecord
  2
block 21
340
0
102
{BLKREFS
331
B3
102
}
  0
BLOCK_RECORD
  5
BA
330
1
100
AcDbSymbolTableRecord
100
AcDbBlockTableRecord
  2
block 22
340
0
102
{BLKREFS
331
BB
102
}
  0
BLOCK_RECORD
  5
C2
330
1
100
AcDbSymbolTableRecord
100
AcDbBlockTableRecord
  2
block 23
340
0
102
{BLKREFS
331
C3
102
}
  0
BLOCK_RECORD
  5
C6
330
1
100
AcDbSymbolTableRecord
100
AcDbBlockTableRecord
  2
block 24
340
0
102
{BLKREFS
331
C7
102
}
  0
BLOCK_RECORD
  5
CA
330
1
100
AcDbSymbolTableRecord
100
AcDbBlockTableRecord
  2
block 25
340
0
102
{BLKREFS
331
CB
102
}
  0
BLOCK_RECORD
  5
D2
330
1
100
AcDbSymbolTableRecord
100
AcDbBlockTableRecord
  2
block 26
340
0
102
{BLKREFS
331
D3
102
}
  0
BLOCK_RECORD
  5
DA
330
1
100
AcDbSymbolTableRecord
100
AcDbBlockTableRecord
  2
block 27
340
0
102
{BLKREFS
331
DB
102
}
  0
BLOCK_RECORD
  5
DE
330
1
100
AcDbSymbolTableRecord
100
AcDbBlockTableRecord
  2
block 28
340
0
102
{BLKREFS
331
DF
102
}
  0
BLOCK_RECORD
  5
E6
330
1
100
AcDbSymbolTableRecord
100
AcDbBlockTableRecord
  2
block 29
340
0
102
{BLKREFS
331
E7
102
}
  0
BLOCK_RECORD
  5
EE
330
1
100
AcDbSymbolTableRecord
100
AcDbBlockTableRecord
  2
block 30
340
0
102
{BLKREFS
331
EF
102
}
  0
BLOCK_RECORD
  5
F2
330
1
100
AcDbSymbolTableRecord
100
AcDbBlockTableRecord
  2
block 31
340
0
102
{BLKREFS
331
F3
102
}
  0
BLOCK_RECORD
  5
FA
330
1
100
AcDbSymbolTableRecord
100
AcDbBlockTableRecord
  2
block 32
340
0
102
{BLKREFS
331
FB
102
}
  0
BLOCK_RECORD
  5
102
330
1
100
AcDbSymbolTableRecord
100
AcDbBlockTableRecord
  2
block 33
340
0
102
{BLKREFS
331
103
102
}
  0
BLOCK_RECORD
  5
106
330
1
100
AcDbSymbolTableRecord
100
AcDbBlockTableRecord
  2
block 34
340
0
102
{BLKREFS
331
107
102
}
  0
BLOCK_RECORD
  5
10E
330
1
100
AcDbSymbolTableRecord
100
AcDbBlockTableRecord
  2
block 35
340
0
102
{BLKREFS
331
10F
102
}
  0
BLOCK_RECORD
  5
116
330
1
100
AcDbSymbolTableRecord
100
AcDbBlockTableRecord
  2
block 36
340
0
102
{BLKREFS
331
117
102
}
  0
BLOCK_RECORD
  5
11A
330
1
100
AcDbSymbolTableRecord
100
AcDbBlockTableRecord
  2
block 37
340
0
102
{BLKREFS
331
11B
102
}
  0
BLOCK_RECORD
  5
122
330
1
100
AcDbSymbolTableRecord
100
AcDbBlockTableRecord
  2
block 38
340
0
102
{BLKREFS
331
123
102
}
  0
BLOCK_RECORD
  5
12A
330
1
100
AcDbSymbolTableRecord
100
AcDbBlockTableRecord
  2
block 39
340
0
102
{BLKREFS
331
12B
102
}
  0
BLOCK_RECORD
  5
12E
330
1
100
AcDbSymbolTableRecord
100
AcDbBlockTableRecord
  2
block 40
340
0
102
{BLKREFS
331
12F
102
}
  0
BLOCK_RECORD
  5
136
330
1
100
AcDbSymbolTableRecord
100
AcDbBlockTableRecord
  2
block 41
340
0
102
{BLKREFS
331
137
102
}
  0
BLOCK_RECORD
  5
13E
330
1
100
AcDbSymbolTableRecord
100
AcDbBlockTableRecord
  2
block 42
340
0
102
{BLKREFS
331
13F
102
}
  0
BLOCK_RECORD
  5
142
330
1
100
AcDbSymbolTableRecord
100
AcDbBlockTableRecord
  2
block 43
340
0
102
{BLKREFS
331
143
102
}
  0
BLOCK_RECORD
  5
14A
330
1
100
AcDbSymbolTableRecord
100
AcDbBlockTableRecord
  2
block 44
340
0
102
{BLKREFS
331
14B
102
}
  0
BLOCK_RECORD
  5
152
330
1
100
AcDbSymbolTableRecord
100
AcDbBlockTableRecord
  2
block 45
340
0
102
{BLKREFS
331
153
102
}
  0
BLOCK_RECORD
  5
156
330
1
100
AcDbSymbolTableRecord
100
AcDbBlockTableRecord
  2
block 46
340
0
102
{BLKREFS
331
157
102
}
  0
BLOCK_RECORD
  5
15E
330
1
100
AcDbSymbolTableRecord
100
AcDbBlockTableRecord
  2
block 47
340
0
102
{BLKREFS
331
15F
102
}
  0
BLOCK_RECORD
  5
166
330
1
100
AcDbSymbolTableRecord
100
AcDbBlockTableRecord
  2
block 48
340
0
102
{BLKREFS
331
167
102
}
  0
BLOCK_RECORD
  5
16A
330
1
100
AcDbSymbolTableRecord
100
AcDbBlockTableRecord
  2
block 49
340
0
102
{BLKREFS
331
16B
102
}
  0
BLOCK_RECORD
  5
172
330
1
100
AcDbSymbolTableRecord
100
AcDbBlockTableRecord
  2
block 50
340
0
102
{BLKREFS
331
173
102
}
  0
ENDTAB
  0
ENDSEC
  0
SECTION
  2
BLOCKS
  0
BLOCK
  5
20
330
1F
100
AcDbEntity
  8
0
100
AcDbBlockBegin
  2
*Model_Space
 70
     0
 71
     0
 10
0.0
 20
0.0
 30
0.0
  3
*Model_Space
  1

  0
ENDBLK
  5
21
330
1F
100
AcDbEntity
  8
0
100
AcDbBlockEnd
  0
BLOCK
  5
1C
330
1B
100
AcDbEntity
 67
     1
  8
0
100
AcDbBlockBegin
  2
*Paper_Space
 70
     0
 71
     0
 10
0.0
 20
0.0
 30
0.0
  3
*Paper_Space
  1

  0
ENDBLK
  5
1D
330
1B
100
AcDbEntity
 67
     1
  8
0
100
AcDbBlockEnd
  0
BLOCK
  5
24
330
23
100
AcDbEntity
  8
0
100
AcDbBlockBegin
  2
*Paper_Space0
 70
     0
 71
     0
 10
0.0
 20
0.0
 30
0.0
  3
*Paper_Space0
  1

  0
ENDBLK
  5
25
330
23
100
AcDbEntity
  8
0
100
AcDbBlockEnd
  0
BLOCK
  5
3E
330
3C
100
AcDbEntity
  8
0
100
AcDbBlockBegin
  2
block 2
 70
     0
 71
     0
 10
0.0
 20
0.0
 30
0.0
  3
block 2
  1

  0
INSERT
  5
41
330
3C
100
AcDbEntity
  8
Layer 2
100
AcDbBlockReference
  2
block 3
 10
0.0
 20
0.0
 30
0.0
  0
POLYLINE
  5
184
330
3C
100
AcDbEntity
  8
Layer 2
370
     0
100
AcDb2dPolyline
 66
     1
 10
0.0
 20
0.0
 30
0.0
  0
VERTEX
  5
185
330
184
100
AcDbEntity
  8
Layer 2
370
     0
100
AcDbVertex
100
AcDb2dVertex
 10
240.6974527393048
 20
7.496183266355121
 30
0.0
  0
VERTEX
  5
186
330
184
100
AcDbEntity
  8
Layer 2
370
     0
100
AcDbVertex
100
AcDb2dVertex
 10
52.32342121087748
 20
7.496183266355121
 30
0.0
  0
VERTEX
  5
187
330
184
100
AcDbEntity
  8
Layer 2
370
     0
100
AcDbVertex
100
AcDb2dVertex
 10
52.32342121087748
 20
203.7150417242449
 30
0.0
  0
VERTEX
  5
188
330
184
100
AcDbEntity
  8
Layer 2
370
     0
100
AcDbVertex
100
AcDb2dVertex
 10
240.6974527393048
 20
203.7150417242449
 30
0.0
  0
VERTEX
  5
189
330
184
100
AcDbEntity
  8
Layer 2
370
     0
100
AcDbVertex
100
AcDb2dVertex
 10
240.6974527393048
 20
7.496183266355121
 30
0.0
  0
SEQEND
  5
18A
330
184
100
AcDbEntity
  8
Layer 2
370
     0
  0
ENDBLK
  5
3F
330
3C
100
AcDbEntity
  8
0
100
AcDbBlockEnd
  0
BLOCK
  5
42
330
40
100
AcDbEntity
  8
0
100
AcDbBlockBegin
  2
block 3
 70
     0
 71
     0
 10
0.0
 20
0.0
 30
0.0
  3
block 3
  1

  0
INSERT
  5
45
330
40
100
AcDbEntity
  8
Layer 2
100
AcDbBlockReference
  2
block 4
 10
0.0
 20
0.0
 30
0.0
  0
INSERT
  5
4B
330
40
100
AcDbEntity
  8
Layer 2
100
AcDbBlockReference
  2
block 5
 10
0.0
 20
0.0
 30
0.0
  0
INSERT
  5
51
330
40
100
AcDbEntity
  8
Layer 2
100
AcDbBlockReference
  2
block 6
 10
0.0
 20
0.0
 30
0.0
  0
INSERT
  5
57
330
40
100
AcDbEntity
  8
Layer 2
100
AcDbBlockReference
  2
block 7
 10
0.0
 20
0.0
 30
0.0
  0
INSERT
  5
67
330
40
100
AcDbEntity
  8
Layer 2
100
AcDbBlockReference
  2
block 10
 10
0.0
 20
0.0
 30
0.0
  0
INSERT
  5
97
330
40
100
AcDbEntity
  8
Layer 2
100
AcDbBlockReference
  2
block 16
 10
0.0
 20
0.0
 30
0.0
  0
INSERT
  5
C3
330
40
100
AcDbEntity
  8
Layer 2
100
AcDbBlockReference
  2
block 23
 10
0.0
 20
0.0
 30
0.0
  0
INSERT
  5
EF
330
40
100
AcDbEntity
  8
Layer 2
100
AcDbBlockReference
  2
block 30
 10
0.0
 20
0.0
 30
0.0
  0
INSERT
  5
12B
330
40
100
AcDbEntity
  8
Layer 2
100
AcDbBlockReference
  2
block 39
 10
0.0
 20
0.0
 30
0.0
  0
ENDBLK
  5
43
330
40
100
AcDbEntity
  8
0
100
AcDbBlockEnd
  0
BLOCK
  5
46
330
44
100
AcDbEntity
  8
0
100
AcDbBlockBegin
  2
block 4
 70
     0
 71
     0
 10
0.0
 20
0.0
 30
0.0
  3
block 4
  1

  0
SPLINE
  5
48
330
44
100
AcDbEntity
  8
Layer 2
 62
     7
420
 16777215
370
    70
100
AcDbSpline
210
0.0
220
0.0
230
1.0
 70
     8
 71
     3
 72
    32
 73
    28
 74
     0
 42
0.0000000001
 43
0.0000000001
 40
0.0
 40
0.0
 40
0.0
 40
0.0
 40
1.0
 40
1.0
 40
1.0
 40
2.0
 40
2.0
 40
2.0
 40
3.0
 40
3.0
 40
3.0
 40
4.0
 40
4.0
 40
4.0
 40
5.0
 40
5.0
 40
5.0
 40
6.0
 40
6.0
 40
6.0
 40
7.0
 40
7.0
 40
7.0
 40
8.0
 40
8.0
 40
8.0
 40
9.0
 40
9.0
 40
9.0
 40
9.0
 10
70.81703828524714
 20
94.70911998500328
 30
0.0
 10
71.98199732358437
 20
94.3301594816258
 30
0.0
 10
70.57967120631342
 20
93.36691078394995
 30
0.0
 10
69.81227618697402
 20
93.61530216843646
 30
0.0
 10
68.70037161910963
 20
93.97634817529064
 30
0.0
 10
68.76445039513528
 20
95.36231008900666
 30
0.0
 10
69.2769083485662
 20
96.16053871293903
 30
0.0
 10
70.65150144718088
 20
98.29994300927919
 30
0.0
 10
74.46108803477014
 20
98.39296058738093
 30
0.0
 10
76.64751788448396
 20
98.39296058738093
 30
0.0
 10
81.51268172875378
 20
98.39364960647798
 30
0.0
 10
86.02713485262517
 20
96.40169539690652
 30
0.0
 10
90.71315373166199
 20
95.71370982850213
 30
0.0
 10
93.8557698333069
 20
95.25241154302718
 30
0.0
 10
98.97655976258226
 20
94.31706811878185
 30
0.0
 10
101.8568318430254
 20
96.2442545332306
 30
0.0
 10
103.1313449177936
 20
97.09726017537847
 30
0.0
 10
104.3348890255656
 20
98.83117673310471
 30
0.0
 10
104.0592813867456
 20
100.4024847839272
 30
0.0
 10
103.7369927041005
 20
102.2383761680168
 30
0.0
 10
101.7221286095521
 20
103.6319172918004
 30
0.0
 10
99.8672892002936
 20
103.0565863457636
 30
0.0
 10
98.01124400761525
 20
102.4812553997269
 30
0.0
 10
97.4245442464772
 20
99.73448076933722
 30
0.0
 10
99.28713512057753
 20
98.75607365152626
 30
0.0
 10
101.9598401980344
 20
97.3515082221899
 30
0.0
 10
102.0635375721404
 20
101.4494493018946
 30
0.0
 10
100.5120388203581
 20
100.6260714809199
 30
0.0
  0
SPLINE
  5
49
330
44
100
AcDbEntity
  8
Layer 2
 62
     7
420
 16777215
370
    70
100
AcDbSpline
210
0.0
220
0.0
230
1.0
 70
     8
 71
     3
 72
    32
 73
    28
 74
     0
 42
0.0000000001
 43
0.0000000001
 40
0.0
 40
0.0
 40
0.0
 40
0.0
 40
1.0
 40
1.0
 40
1.0
 40
2.0
 40
2.0
 40
2.0
 40
3.0
 40
3.0
 40
3.0
 40
4.0
 40
4.0
 40
4.0
 40
5.0
 40
5.0
 40
5.0
 40
6.0
 40
6.0
 40
6.0
 40
7.0
 40
7.0
 40
7.0
 40
8.0
 40
8.0
 40
8.0
 40
9.0
 40
9.0
 40
9.0
 40
9.0
 10
137.7197590801534
 20
94.70911998500328
 30
0.0
 10
136.5501491629111
 20
94.3301594816258
 30
0.0
 10
137.9581596877327
 20
93.36691078394995
 30
0.0
 10
138.7283107834603
 20
93.61530216843646
 30
0.0
 10
139.8445217206812
 20
93.97634817529064
 30
0.0
 10
139.7800984351071
 20
95.36231008900666
 30
0.0
 10
139.2657456791593
 20
96.16053871293903
 30
0.0
 10
137.8858126825425
 20
98.29994300927919
 30
0.0
 10
134.0612399295923
 20
98.39296058738093
 30
0.0
 10
131.8663695959397
 20
98.39296058738093
 30
0.0
 10
126.9820854717267
 20
98.39364960647798
 30
0.0
 10
122.4504068704291
 20
96.40169539690652
 30
0.0
 10
117.7461289853204
 20
95.71370982850213
 30
0.0
 10
114.5911105399286
 20
95.25241154302718
 30
0.0
 10
109.4503390568388
 20
94.31706811878185
 30
0.0
 10
106.5588704160686
 20
96.2442545332306
 30
0.0
 10
105.2795342076211
 20
97.09726017537847
 30
0.0
 10
104.0709947113955
 20
98.83117673310471
 30
0.0
 10
104.347635878861
 20
100.4024847839272
 30
0.0
 10
104.671130344926
 20
102.2383761680168
 30
0.0
 10
106.6939181590904
 20
103.6319172918004
 30
0.0
 10
108.5561645236422
 20
103.0565863457636
 30
0.0
 10
110.4194444168396
 20
102.4812553997269
 30
0.0
 10
111.0085557448173
 20
99.73448076933722
 30
0.0
 10
109.1383856606494
 20
98.75607365152626
 30
0.0
 10
106.4555175515111
 20
97.3515082221899
 30
0.0
 10
106.3513034130823
 20
101.4494493018946
 30
0.0
 10
107.909003336738
 20
100.6260714809199
 30
0.0
  0
ENDBLK
  5
47
330
44
100
AcDbEntity
  8
0
100
AcDbBlockEnd
  0
BLOCK
  5
4C
330
4A
100
AcDbEntity
  8
0
100
AcDbBlockBegin
  2
block 5
 70
     0
 71
     0
 10
0.0
 20
0.0
 30
0.0
  3
block 5
  1

  0
SPLINE
  5
4E
330
4A
100
AcDbEntity
  8
Layer 2
 62
     7
420
 16777215
370
    70
100
AcDbSpline
210
0.0
220
0.0
230
1.0
 70
     8
 71
     3
 72
    35
 73
    31
 74
     0
 42
0.0000000001
 43
0.0000000001
 40
0.0
 40
0.0
 40
0.0
 40
0.0
 40
1.0
 40
1.0
 40
1.0
 40
2.0
 40
2.0
 40
2.0
 40
3.0
 40
3.0
 40
3.0
 40
4.0
 40
4.0
 40
4.0
 40
5.0
 40
5.0
 40
5.0
 40
6.0
 40
6.0
 40
6.0
 40
7.0
 40
7.0
 40
7.0
 40
8.0
 40
8.0
 40
8.0
 40
9.0
 40
9.0
 40
9.0
 40
10.0
 40
10.0
 40
10.0
 40
10.0
 10
100.8779079608916
 20
122.8944796784778
 30
0.0
 10
100.9230387117484
 20
123.8637572932528
 30
0.0
 10
102.6385240086286
 20
122.7718342792029
 30
0.0
 10
101.541605606125
 20
121.800661861911
 30
0.0
 10
100.8877264830246
 20
121.221885820389
 30
0.0
 10
99.52295190654287
 20
121.5407294075489
 30
0.0
 10
99.09231497088665
 20
122.2194132181431
 30
0.0
 10
97.99109019902654
 20
123.9550523236119
 30
0.0
 10
100.7890244973722
 20
125.648833518935
 30
0.0
 10
102.217533340331
 20
124.9034871107012
 30
0.0
 10
104.16452905382
 20
123.8877007068753
 30
0.0
 10
103.7926309961873
 20
121.2306708138764
 30
0.0
 10
102.5461954496239
 20
119.8776095620445
 30
0.0
 10
100.9902180737108
 20
118.188823755175
 30
0.0
 10
98.29787595198803
 20
117.995209388904
 30
0.0
 10
96.1055894399493
 20
118.2060492326013
 30
0.0
 10
91.15498722764528
 20
118.6828504477598
 30
0.0
 10
87.22998994130015
 20
121.8533718228353
 30
0.0
 10
82.68160262689905
 20
123.5893554378527
 30
0.0
 10
79.13969995851369
 20
124.941383161039
 30
0.0
 10
73.43324379674586
 20
126.1215006195113
 30
0.0
 10
70.87887774920736
 20
122.3115695223735
 30
0.0
 10
69.91631807062856
 20
120.8761704884442
 30
0.0
 10
70.4709784437538
 20
118.3836439048659
 30
0.0
 10
72.29997963687292
 20
117.9890082170305
 30
0.0
 10
74.33740910684968
 20
117.5494140331127
 30
0.0
 10
74.59062362501554
 20
120.9206122202039
 30
0.0
 10
72.20730656831971
 20
120.5307996660479
 30
0.0
 10
71.84694958056257
 20
120.0806979409
 30
0.0
 10
71.82610675287681
 20
119.39167884385
 30
0.0
 10
72.52270505999432
 20
119.3222601698222
 30
0.0
  0
SPLINE
  5
4F
330
4A
100
AcDbEntity
  8
Layer 2
 62
     7
420
 16777215
370
    70
100
AcDbSpline
210
0.0
220
0.0
230
1.0
 70
     8
 71
     3
 72
    35
 73
    31
 74
     0
 42
0.0000000001
 43
0.0000000001
 40
0.0
 40
0.0
 40
0.0
 40
0.0
 40
1.0
 40
1.0
 40
1.0
 40
2.0
 40
2.0
 40
2.0
 40
3.0
 40
3.0
 40
3.0
 40
4.0
 40
4.0
 40
4.0
 40
5.0
 40
5.0
 40
5.0
 40
6.0
 40
6.0
 40
6.0
 40
7.0
 40
7.0
 40
7.0
 40
8.0
 40
8.0
 40
8.0
 40
9.0
 40
9.0
 40
9.0
 40
10.0
 40
10.0
 40
10.0
 40
10.0
 10
107.4294460451913
 20
122.8949964428006
 30
0.0
 10
107.3841430395602
 20
123.8644463123499
 30
0.0
 10
105.6552218702876
 20
122.7723510435257
 30
0.0
 10
106.7607530115043
 20
121.801350881008
 30
0.0
 10
107.4197997778326
 20
121.222574839486
 30
0.0
 10
108.79490964077
 20
121.5414184266459
 30
0.0
 10
109.2289916719115
 20
122.2201022372401
 30
0.0
 10
110.339001437259
 20
123.955741342709
 30
0.0
 10
107.519190782582
 20
125.6495225380321
 30
0.0
 10
106.0794853792961
 20
124.9041761297983
 30
0.0
 10
104.1175035004463
 20
123.8883897259724
 30
0.0
 10
104.4921576344672
 20
121.2313598329734
 30
0.0
 10
105.7484117031636
 20
119.8782985811415
 30
0.0
 10
107.3164469132751
 20
118.1893405194978
 30
0.0
 10
110.0296318626836
 20
117.9957261532268
 30
0.0
 10
112.2387993426
 20
118.2067382516983
 30
0.0
 10
117.2281588791131
 20
118.6835394668569
 30
0.0
 10
121.1834730057284
 20
121.8540608419323
 30
0.0
 10
125.7668280393048
 20
123.5900444569497
 30
0.0
 10
129.3362914715722
 20
124.942072180136
 30
0.0
 10
135.0871893650997
 20
126.1221896386083
 30
0.0
 10
137.6611924569042
 20
122.3122585414706
 30
0.0
 10
138.6311590907762
 20
120.8768595075412
 30
0.0
 10
138.0721923482945
 20
118.3843329239629
 30
0.0
 10
136.2290662636858
 20
117.9895249813533
 30
0.0
 10
134.1757893544769
 20
117.5501030522097
 30
0.0
 10
133.9206800337942
 20
120.9213012393009
 30
0.0
 10
136.3226006061103
 20
120.5314886851449
 30
0.0
 10
136.6855414154814
 20
120.081386959997
 30
0.0
 10
136.70690100749
 20
119.3923678629471
 30
0.0
 10
136.0046182928218
 20
119.3229491889193
 30
0.0
  0
ENDBLK
  5
4D
330
4A
100
AcDbEntity
  8
0
100
AcDbBlockEnd
  0
BLOCK
  5
52
330
50
100
AcDbEntity
  8
0
100
AcDbBlockBegin
  2
block 6
 70
     0
 71
     0
 10
0.0
 20
0.0
 30
0.0
  3
block 6
  1

  0
SPLINE
  5
54
330
50
100
AcDbEntity
  8
Layer 2
 62
     7
420
 16777215
370
    70
100
AcDbSpline
210
0.0
220
0.0
230
1.0
 70
     8
 71
     3
 72
    41
 73
    37
 74
     0
 42
0.0000000001
 43
0.0000000001
 40
0.0
 40
0.0
 40
0.0
 40
0.0
 40
1.0
 40
1.0
 40
1.0
 40
2.0
 40
2.0
 40
2.0
 40
3.0
 40
3.0
 40
3.0
 40
4.0
 40
4.0
 40
4.0
 40
5.0
 40
5.0
 40
5.0
 40
6.0
 40
6.0
 40
6.0
 40
7.0
 40
7.0
 40
7.0
 40
8.0
 40
8.0
 40
8.0
 40
9.0
 40
9.0
 40
9.0
 40
10.0
 40
10.0
 40
10.0
 40
11.0
 40
11.0
 40
11.0
 40
12.0
 40
12.0
 40
12.0
 40
12.0
 10
75.31667749853194
 20
89.39747176584508
 30
0.0
 10
74.42904864675732
 20
89.70580781177495
 30
0.0
 10
73.96499428489417
 20
87.85406898845315
 30
0.0
 10
75.5648966282442
 20
87.9691351776605
 30
0.0
 10
76.3524454561723
 20
88.02529023407007
 30
0.0
 10
78.32648516922046
 20
89.35061846724568
 30
0.0
 10
78.41984725687074
 20
90.17916393144827
 30
0.0
 10
78.68012422078137
 20
92.49874672166699
 30
0.0
 10
74.10624319978942
 20
90.76861976897452
 30
0.0
 10
73.19570446303788
 20
90.2043131284906
 30
0.0
 10
71.70363360837618
 20
89.27861597160395
 30
0.0
 10
70.02621661660804
 20
87.3555636717375
 30
0.0
 10
71.60458711317524
 20
85.68365883274575
 30
0.0
 10
72.87065970400457
 20
84.34282766988652
 30
0.0
 10
75.25518254412023
 20
84.29941946677238
 30
0.0
 10
76.9885823375237
 20
84.3741780388023
 30
0.0
 10
83.57767196261253
 20
84.48579913252439
 30
0.0
 10
88.66056584155014
 20
90.55536835843755
 30
0.0
 10
90.3870754439831
 20
90.18467608422466
 30
0.0
 10
92.24897729898638
 20
89.78538951748422
 30
0.0
 10
89.22693953932522
 20
86.92251516924159
 30
0.0
 10
89.62794865380829
 20
85.60235457929386
 30
0.0
 10
90.22842879688734
 20
83.62590329940603
 30
0.0
 10
92.76935897203336
 20
84.27805987476383
 30
0.0
 10
94.18615449034236
 20
84.59466414985829
 30
0.0
 10
98.20193004272383
 20
85.49073348557177
 30
0.0
 10
100.9822943540947
 20
88.67675779033081
 30
0.0
 10
102.3320827652156
 20
88.95753307237868
 30
0.0
 10
104.4534003102582
 20
89.39747176584508
 30
0.0
 10
105.0089219572547
 20
86.39059242631902
 30
0.0
 10
103.1137749308188
 20
86.15529240467646
 30
0.0
 10
102.5105387113515
 20
86.08053383264654
 30
0.0
 10
101.6523654259758
 20
86.55285642367429
 30
0.0
 10
101.7717379845397
 20
87.27632647557675
 30
0.0
 10
101.9157429758232
 20
88.14759112379645
 30
0.0
 10
103.1141194403673
 20
87.87370603271907
 30
0.0
 10
102.7787393948782
 20
87.16504989140319
 30
0.0
  0
SPLINE
  5
55
330
50
100
AcDbEntity
  8
Layer 2
 62
     7
420
 16777215
370
    70
100
AcDbSpline
210
0.0
220
0.0
230
1.0
 70
     8
 71
     3
 72
    41
 73
    37
 74
     0
 42
0.0000000001
 43
0.0000000001
 40
0.0
 40
0.0
 40
0.0
 40
0.0
 40
1.0
 40
1.0
 40
1.0
 40
2.0
 40
2.0
 40
2.0
 40
3.0
 40
3.0
 40
3.0
 40
4.0
 40
4.0
 40
4.0
 40
5.0
 40
5.0
 40
5.0
 40
6.0
 40
6.0
 40
6.0
 40
7.0
 40
7.0
 40
7.0
 40
8.0
 40
8.0
 40
8.0
 40
9.0
 40
9.0
 40
9.0
 40
10.0
 40
10.0
 40
10.0
 40
11.0
 40
11.0
 40
11.0
 40
12.0
 40
12.0
 40
12.0
 40
12.0
 10
133.1805012687882
 20
89.39747176584508
 30
0.0
 10
134.0776041331473
 20
89.70580781177495
 30
0.0
 10
134.546653883464
 20
87.85406898845315
 30
0.0
 10
132.929698317462
 20
87.9691351776605
 30
0.0
 10
132.1335367508208
 20
88.02529023407007
 30
0.0
 10
130.1383097005383
 20
89.35061846724568
 30
0.0
 10
130.0440863390168
 20
90.17916393144827
 30
0.0
 10
129.7810532987179
 20
92.49874672166699
 30
0.0
 10
134.4036824208262
 20
90.76861976897452
 30
0.0
 10
135.3240396797107
 20
90.2043131284906
 30
0.0
 10
136.8321302283788
 20
89.27861597160395
 30
0.0
 10
138.5274617166702
 20
87.3555636717375
 30
0.0
 10
136.9322102522253
 20
85.68365883274575
 30
0.0
 10
135.6527017890035
 20
84.34282766988652
 30
0.0
 10
133.242685242297
 20
84.29941946677238
 30
0.0
 10
131.4906819332732
 20
84.3741780388023
 30
0.0
 10
124.831140105511
 20
84.48579913252439
 30
0.0
 10
119.6938137179064
 20
90.55536835843755
 30
0.0
 10
117.9488728546274
 20
90.18467608422466
 30
0.0
 10
116.0669894458097
 20
89.78538951748422
 30
0.0
 10
119.1214111030322
 20
86.92251516924159
 30
0.0
 10
118.7162678739668
 20
85.60235457929386
 30
0.0
 10
118.1092420494657
 20
83.62590329940603
 30
0.0
 10
115.5410956199863
 20
84.27805987476383
 30
0.0
 10
114.1093139363164
 20
84.59466414985829
 30
0.0
 10
110.0501301808208
 20
85.49073348557177
 30
0.0
 10
107.2404825578253
 20
88.67675779033081
 30
0.0
 10
105.8760524908921
 20
88.95753307237868
 30
0.0
 10
103.7321695704211
 20
89.39747176584508
 30
0.0
 10
103.1706190063254
 20
86.39059242631902
 30
0.0
 10
105.0860920961243
 20
86.15529240467646
 30
0.0
 10
105.6958739970135
 20
86.08053383264654
 30
0.0
 10
106.5631767854252
 20
86.55285642367429
 30
0.0
 10
106.4424261886672
 20
87.27632647557675
 30
0.0
 10
106.2968709044154
 20
88.14759112379645
 30
0.0
 10
105.08591984135
 20
87.87370603271907
 30
0.0
 10
105.4247449823244
 20
87.16504989140319
 30
0.0
  0
ENDBLK
  5
53
330
50
100
AcDbEntity
  8
0
100
AcDbBlockEnd
  0
BLOCK
  5
58
330
56
100
AcDbEntity
  8
0
100
AcDbBlockBegin
  2
block 7
 70
     0
 71
     0
 10
0.0
 20
0.0
 30
0.0
  3
block 7
  1

  0
INSERT
  5
5B
330
56
100
AcDbEntity
  8
Layer 2
100
AcDbBlockReference
  2
block 8
 10
0.0
 20
0.0
 30
0.0
  0
INSERT
  5
61
330
56
100
AcDbEntity
  8
Layer 2
100
AcDbBlockReference
  2
block 9
 10
0.0
 20
0.0
 30
0.0
  0
ENDBLK
  5
59
330
56
100
AcDbEntity
  8
0
100
AcDbBlockEnd
  0
BLOCK
  5
5C
330
5A
100
AcDbEntity
  8
0
100
AcDbBlockBegin
  2
block 8
 70
     0
 71
     0
 10
0.0
 20
0.0
 30
0.0
  3
block 8
  1

  0
SPLINE
  5
5E
330
5A
100
AcDbEntity
  8
Layer 2
 62
     7
420
 16777215
370
    35
100
AcDbSpline
210
0.0
220
0.0
230
1.0
 70
     8
 71
     3
 72
    38
 73
    34
 74
     0
 42
0.0000000001
 43
0.0000000001
 40
0.0
 40
0.0
 40
0.0
 40
0.0
 40
1.0
 40
1.0
 40
1.0
 40
2.0
 40
2.0
 40
2.0
 40
3.0
 40
3.0
 40
3.0
 40
4.0
 40
4.0
 40
4.0
 40
5.0
 40
5.0
 40
5.0
 40
6.0
 40
6.0
 40
6.0
 40
7.0
 40
7.0
 40
7.0
 40
8.0
 40
8.0
 40
8.0
 40
9.0
 40
9.0
 40
9.0
 40
10.0
 40
10.0
 40
10.0
 40
11.0
 40
11.0
 40
11.0
 40
11.0
 10
77.80403643888232
 20
108.4578070475383
 30
0.0
 10
77.74495305131029
 20
108.5799356824904
 30
0.0
 10
77.61989608519572
 20
108.6553832736174
 30
0.0
 10
77.70929631303795
 20
108.887410454549
 30
0.0
 10
78.9853596807745
 20
109.1976413029957
 30
0.0
 10
78.08016084202511
 20
107.3148966203067
 30
0.0
 10
77.12879772377336
 20
107.7829128419779
 30
0.0
 10
76.21912026089313
 20
108.2299139811891
 30
0.0
 10
76.98048636313335
 20
109.5757405325019
 30
0.0
 10
77.69224309038597
 20
109.8027723249799
 30
0.0
 10
80.1725395849916
 20
110.5947997770388
 30
0.0
 10
80.34307181151146
 20
107.5346937122656
 30
0.0
 10
78.70286185098401
 20
106.4238226730468
 30
0.0
 10
77.21044648677378
 20
105.4128594029003
 30
0.0
 10
75.04761554113394
 20
105.8321275234552
 30
0.0
 10
74.34326576917461
 20
107.5591538902109
 30
0.0
 10
73.50783011400152
 20
109.6065741370949
 30
0.0
 10
75.13202038052255
 20
111.2188788241918
 30
0.0
 10
76.91123994387983
 20
111.9991929516009
 30
0.0
 10
81.19332137727112
 20
113.8778035197076
 30
0.0
 10
86.61486814240878
 20
111.3127576761649
 30
0.0
 10
90.64201250989159
 20
109.9090535206998
 30
0.0
 10
93.9654961245121
 20
108.750295654236
 30
0.0
 10
98.19176701104234
 20
107.1093966746115
 30
0.0
 10
101.8111843278458
 20
107.6706027291587
 30
0.0
 10
103.1742363565849
 20
107.8823038467273
 30
0.0
 10
104.6649291730525
 20
109.5590318193984
 30
0.0
 10
103.4489827215336
 20
110.8914224983188
 30
0.0
 10
102.9919908054152
 20
111.3921671270999
 30
0.0
 10
101.9184990522113
 20
111.6453816452657
 30
0.0
 10
101.4403197988587
 20
111.0281927890832
 30
0.0
 10
100.8904825594128
 20
110.3188476286703
 30
0.0
 10
101.9159152305974
 20
109.1323567435502
 30
0.0
 10
102.2521565499578
 20
110.0208468691962
 30
0.0
  0
SPLINE
  5
5F
330
5A
100
AcDbEntity
  8
Layer 2
 62
     7
420
 16777215
370
    35
100
AcDbSpline
210
0.0
220
0.0
230
1.0
 70
     8
 71
     3
 72
    26
 73
    22
 74
     0
 42
0.0000000001
 43
0.0000000001
 40
0.0
 40
0.0
 40
0.0
 40
0.0
 40
1.0
 40
1.0
 40
1.0
 40
2.0
 40
2.0
 40
2.0
 40
3.0
 40
3.0
 40
3.0
 40
4.0
 40
4.0
 40
4.0
 40
5.0
 40
5.0
 40
5.0
 40
6.0
 40
6.0
 40
6.0
 40
7.0
 40
7.0
 40
7.0
 40
7.0
 10
70.88266735424114
 20
110.2439168018661
 30
0.0
 10
70.23085528843187
 20
109.5306097816451
 30
0.0
 10
71.6521294308717
 20
108.9154879827538
 30
0.0
 10
72.08552244291613
 20
109.9093980302484
 30
0.0
 10
72.58781736466555
 20
111.0619547248387
 30
0.0
 10
71.33948701558528
 20
111.5952555059554
 30
0.0
 10
70.43618297935276
 20
111.5835421813055
 30
0.0
 10
68.78580998714382
 20
111.5623548440712
 30
0.0
 10
66.87481552147574
 20
110.0229139264873
 30
0.0
 10
67.39192435381175
 20
108.2345648600941
 30
0.0
 10
68.67728947935846
 20
103.7879801172822
 30
0.0
 10
76.9003878931013
 20
107.4335801597736
 30
0.0
 10
79.39463702442218
 20
108.150504530254
 30
0.0
 10
82.20893552632278
 20
108.9599297145135
 30
0.0
 10
84.90834009379029
 20
110.2079155540452
 30
0.0
 10
87.85114065729068
 20
110.2439168018661
 30
0.0
 10
88.76891409456125
 20
110.2551133621932
 30
0.0
 10
90.6740518979044
 20
110.1677801916421
 30
0.0
 10
90.98204343428574
 20
109.0217691784737
 30
0.0
 10
91.51689450837078
 20
107.033604573936
 30
0.0
 10
88.10401066590804
 20
108.0817748753233
 30
0.0
 10
88.9675238492859
 20
108.9042914224267
 30
0.0
  0
ENDBLK
  5
5D
330
5A
100
AcDbEntity
  8
0
100
AcDbBlockEnd
  0
BLOCK
  5
62
330
60
100
AcDbEntity
  8
0
100
AcDbBlockBegin
  2
block 9
 70
     0
 71
     0
 10
0.0
 20
0.0
 30
0.0
  3
block 9
  1

  0
SPLINE
  5
64
330
60
100
AcDbEntity
  8
Layer 2
 62
     7
420
 16777215
370
    35
100
AcDbSpline
210
0.0
220
0.0
230
1.0
 70
     8
 71
     3
 72
    38
 73
    34
 74
     0
 42
0.0000000001
 43
0.0000000001
 40
0.0
 40
0.0
 40
0.0
 40
0.0
 40
1.0
 40
1.0
 40
1.0
 40
2.0
 40
2.0
 40
2.0
 40
3.0
 40
3.0
 40
3.0
 40
4.0
 40
4.0
 40
4.0
 40
5.0
 40
5.0
 40
5.0
 40
6.0
 40
6.0
 40
6.0
 40
7.0
 40
7.0
 40
7.0
 40
8.0
 40
8.0
 40
8.0
 40
9.0
 40
9.0
 40
9.0
 40
10.0
 40
10.0
 40
10.0
 40
11.0
 40
11.0
 40
11.0
 40
11.0
 10
130.6297525715092
 20
108.4576347927641
 30
0.0
 10
130.6896972329526
 20
108.5795911729419
 30
0.0
 10
130.815959982487
 20
108.6550387640689
 30
0.0
 10
130.7256984807734
 20
108.8870659450005
 30
0.0
 10
129.4360269858702
 20
109.1972967934472
 30
0.0
 10
130.3508720919783
 20
107.3145521107582
 30
0.0
 10
131.3123982419115
 20
107.7825683324294
 30
0.0
 10
132.2313774626019
 20
108.2295694716405
 30
0.0
 10
131.4620876407456
 20
109.5753960229534
 30
0.0
 10
130.7429239581997
 20
109.8024278154313
 30
0.0
 10
128.2364447379062
 20
110.5944552674903
 30
0.0
 10
128.064362218418
 20
107.5343492027171
 30
0.0
 10
129.7219699111459
 20
106.4231336539498
 30
0.0
 10
131.2295436954912
 20
105.4128594029003
 30
0.0
 10
133.4149400165595
 20
105.8321275234552
 30
0.0
 10
134.1270412533606
 20
107.5588093806624
 30
0.0
 10
134.9710896472468
 20
109.6062296275464
 30
0.0
 10
133.3300184128481
 20
111.2185343146433
 30
0.0
 10
131.5321953338704
 20
111.9988484420524
 30
0.0
 10
127.2051554043966
 20
113.8774590101591
 30
0.0
 10
121.7271090733009
 20
111.3124131666164
 30
0.0
 10
117.6577622861238
 20
109.9087090111513
 30
0.0
 10
114.2996554618765
 20
108.7499511446875
 30
0.0
 10
110.0289428435865
 20
107.109052165063
 30
0.0
 10
106.3718017312195
 20
107.6704304743845
 30
0.0
 10
104.9946248109909
 20
107.8819593371788
 30
0.0
 10
103.4882568100654
 20
109.5586873098499
 30
0.0
 10
104.7169501148798
 20
110.8912502435445
 30
0.0
 10
105.1787651646775
 20
111.3919948723256
 30
0.0
 10
106.2632812234342
 20
111.6450371357172
 30
0.0
 10
106.7466281200147
 20
111.0278482795347
 30
0.0
 10
107.301977512237
 20
110.3185031191218
 30
0.0
 10
106.2658650450481
 20
109.1320122340017
 30
0.0
 10
105.9263508849768
 20
110.0205023596477
 30
0.0
  0
SPLINE
  5
65
330
60
100
AcDbEntity
  8
Layer 2
 62
     7
420
 16777215
370
    35
100
AcDbSpline
210
0.0
220
0.0
230
1.0
 70
     8
 71
     3
 72
    26
 73
    22
 74
     0
 42
0.0000000001
 43
0.0000000001
 40
0.0
 40
0.0
 40
0.0
 40
0.0
 40
1.0
 40
1.0
 40
1.0
 40
2.0
 40
2.0
 40
2.0
 40
3.0
 40
3.0
 40
3.0
 40
4.0
 40
4.0
 40
4.0
 40
5.0
 40
5.0
 40
5.0
 40
6.0
 40
6.0
 40
6.0
 40
7.0
 40
7.0
 40
7.0
 40
7.0
 10
137.6234686613407
 20
110.2435722923176
 30
0.0
 10
138.2821709181204
 20
109.5302652720966
 30
0.0
 10
136.846082865094
 20
108.9151434732052
 30
0.0
 10
136.4082112289188
 20
109.9090535206998
 30
0.0
 10
135.9005764091672
 20
111.0616102152902
 30
0.0
 10
137.1619981210914
 20
111.5950832511811
 30
0.0
 10
138.0749484246826
 20
111.583197671757
 30
0.0
 10
139.7425468943179
 20
111.5620103345227
 30
0.0
 10
141.6735229138004
 20
110.0225694169388
 30
0.0
 10
141.150901928688
 20
108.2342203505456
 30
0.0
 10
139.8521009307488
 20
103.7879801172822
 30
0.0
 10
131.5428751298747
 20
107.433235650225
 30
0.0
 10
129.0226155276402
 20
108.1501600207055
 30
0.0
 10
126.1788614593407
 20
108.959585204965
 30
0.0
 10
123.4512071088942
 20
110.2075710444967
 30
0.0
 10
120.477745195575
 20
110.2435722923176
 30
0.0
 10
119.55049774572
 20
110.2547688526446
 30
0.0
 10
117.6253783885624
 20
110.1674356820936
 30
0.0
 10
117.3141140114701
 20
109.0214246689252
 30
0.0
 10
116.7737507846087
 20
107.0332600643875
 30
0.0
 10
120.2222913653437
 20
108.0814303657748
 30
0.0
 10
119.34964867893
 20
108.9039469128782
 30
0.0
  0
ENDBLK
  5
63
330
60
100
AcDbEntity
  8
0
100
AcDbBlockEnd
  0
BLOCK
  5
68
330
66
100
AcDbEntity
  8
0
100
AcDbBlockBegin
  2
block 10
 70
     0
 71
     0
 10
0.0
 20
0.0
 30
0.0
  3
block 10
  1

  0
INSERT
  5
6B
330
66
100
AcDbEntity
  8
Layer 2
100
AcDbBlockReference
  2
block 11
 10
0.0
 20
0.0
 30
0.0
  0
INSERT
  5
71
330
66
100
AcDbEntity
  8
Layer 2
100
AcDbBlockReference
  2
block 12
 10
0.0
 20
0.0
 30
0.0
  0
INSERT
  5
79
330
66
100
AcDbEntity
  8
Layer 2
100
AcDbBlockReference
  2
block 13
 10
0.0
 20
0.0
 30
0.0
  0
SPLINE
  5
7E
330
66
100
AcDbEntity
  8
Layer 2
  6
AI-Linetype-1
 62
     7
420
 16777215
370
    35
100
AcDbSpline
210
0.0
220
0.0
230
1.0
 70
     8
 71
     3
 72
    14
 73
    10
 74
     0
 42
0.0000000001
 43
0.0000000001
 40
0.0
 40
0.0
 40
0.0
 40
0.0
 40
1.0
 40
1.0
 40
1.0
 40
2.0
 40
2.0
 40
2.0
 40
3.0
 40
3.0
 40
3.0
 40
3.0
 10
160.5945040831153
 20
49.40025769164299
 30
0.0
 10
163.9986029320906
 20
47.11719291356793
 30
0.0
 10
160.8749348556146
 20
40.45127765915802
 30
0.0
 10
158.3265977251753
 20
38.48757323256561
 30
0.0
 10
160.2820339226031
 20
37.12193738221257
 30
0.0
 10
161.5615423858249
 20
35.83312716118061
 30
0.0
 10
161.9039848770587
 20
33.52560220516027
 30
0.0
 10
162.1323947077308
 20
31.98908961873884
 30
0.0
 10
162.4862060140659
 20
27.81122232377636
 30
0.0
 10
160.7819172775129
 20
27.04537759740532
 30
0.0
  0
SPLINE
  5
80
330
66
100
AcDbEntity
  8
Layer 2
  6
AI-Linetype-2
 62
     7
420
 16777215
370
    35
100
AcDbSpline
210
0.0
220
0.0
230
1.0
 70
     8
 71
     3
 72
    17
 73
    13
 74
     0
 42
0.0000000001
 43
0.0000000001
 40
0.0
 40
0.0
 40
0.0
 40
0.0
 40
1.0
 40
1.0
 40
1.0
 40
2.0
 40
2.0
 40
2.0
 40
3.0
 40
3.0
 40
3.0
 40
4.0
 40
4.0
 40
4.0
 40
4.0
 10
191.0346787716858
 20
55.7350992699204
 30
0.0
 10
191.0370903385254
 20
51.53587238294936
 30
0.0
 10
186.3031846322437
 20
50.89611815133847
 30
0.0
 10
182.9972710045979
 20
50.93539223987032
 30
0.0
 10
179.4629475462801
 20
50.9763888761448
 30
0.0
 10
176.9748995868327
 20
51.97994519099807
 30
0.0
 10
173.7316866970185
 20
52.83295083314593
 30
0.0
 10
171.5189018668425
 20
53.41517197015315
 30
0.0
 10
170.0240749357926
 20
54.62336695683027
 30
0.0
 10
167.8150797106504
 20
55.40023598875411
 30
0.0
 10
160.5197455110853
 20
57.96717663481376
 30
0.0
 10
158.1415960976174
 20
54.64886066342112
 30
0.0
 10
158.494373875307
 20
55.06537270758783
 30
0.0
  0
SPLINE
  5
82
330
66
100
AcDbEntity
  8
Layer 2
  6
AI-Linetype-3
 62
     7
420
 16777215
370
    35
100
AcDbSpline
210
0.0
220
0.0
230
1.0
 70
     8
 71
     3
 72
    14
 73
    10
 74
     0
 42
0.0000000001
 43
0.0000000001
 40
0.0
 40
0.0
 40
0.0
 40
0.0
 40
1.0
 40
1.0
 40
1.0
 40
2.0
 40
2.0
 40
2.0
 40
3.0
 40
3.0
 40
3.0
 40
3.0
 10
221.9774928915542
 20
49.40025769164299
 30
0.0
 10
218.5513454314733
 20
47.11719291356793
 30
0.0
 10
221.5709716242948
 20
40.45127765915802
 30
0.0
 10
224.1355007035147
 20
38.48757323256561
 30
0.0
 10
222.1680066718886
 20
37.12193738221257
 30
0.0
 10
221.0042534169712
 20
35.83312716118061
 30
0.0
 10
220.6593993588977
 20
33.52560220516027
 30
0.0
 10
220.42995599958
 20
31.98908961873884
 30
0.0
 10
220.0737331264052
 20
27.81122232377636
 30
0.0
 10
221.7887016589626
 20
27.04537759740532
 30
0.0
  0
SPLINE
  5
84
330
66
100
AcDbEntity
  8
Layer 2
  6
AI-Linetype-4
 62
     7
420
 16777215
370
    35
100
AcDbSpline
210
0.0
220
0.0
230
1.0
 70
     8
 71
     3
 72
    17
 73
    13
 74
     0
 42
0.0000000001
 43
0.0000000001
 40
0.0
 40
0.0
 40
0.0
 40
0.0
 40
1.0
 40
1.0
 40
1.0
 40
2.0
 40
2.0
 40
2.0
 40
3.0
 40
3.0
 40
3.0
 40
4.0
 40
4.0
 40
4.0
 40
4.0
 10
191.3402587412274
 20
55.7350992699204
 30
0.0
 10
191.3381916839363
 20
51.53587238294936
 30
0.0
 10
196.1024142304883
 20
50.89611815133847
 30
0.0
 10
199.4296874501426
 20
50.93539223987032
 30
0.0
 10
202.9870930482116
 20
50.9763888761448
 30
0.0
 10
205.4909884468912
 20
51.97994519099807
 30
0.0
 10
208.7555609287139
 20
52.83295083314593
 30
0.0
 10
210.9824706503794
 20
53.41517197015315
 30
0.0
 10
212.4865993392395
 20
54.62336695683027
 30
0.0
 10
214.7104084749682
 20
55.40023598875411
 30
0.0
 10
216.8418890516923
 20
56.14541014221365
 30
0.0
 10
222.6282714287179
 20
57.07489690413406
 30
0.0
 10
223.8802191280577
 20
54.95271808522016
 30
0.0
  0
INSERT
  5
87
330
66
100
AcDbEntity
  8
Layer 2
100
AcDbBlockReference
  2
block 14
 10
0.0
 20
0.0
 30
0.0
  0
INSERT
  5
8F
330
66
100
AcDbEntity
  8
Layer 2
100
AcDbBlockReference
  2
block 15
 10
0.0
 20
0.0
 30
0.0
  0
ENDBLK
  5
69
330
66
100
AcDbEntity
  8
0
100
AcDbBlockEnd
  0
BLOCK
  5
6C
330
6A
100
AcDbEntity
  8
0
100
AcDbBlockBegin
  2
block 11
 70
     0
 71
     0
 10
0.0
 20
0.0
 30
0.0
  3
block 11
  1

  0
SPLINE
  5
6E
330
6A
100
AcDbEntity
  8
Layer 2
 62
     7
420
 16777215
370
    35
100
AcDbSpline
210
0.0
220
0.0
230
1.0
 70
     8
 71
     3
 72
    17
 73
    13
 74
     0
 42
0.0000000001
 43
0.0000000001
 40
0.0
 40
0.0
 40
0.0
 40
0.0
 40
1.0
 40
1.0
 40
1.0
 40
2.0
 40
2.0
 40
2.0
 40
3.0
 40
3.0
 40
3.0
 40
4.0
 40
4.0
 40
4.0
 40
4.0
 10
157.991734444009
 20
49.81883679310085
 30
0.0
 10
160.894227390332
 20
44.90716415978016
 30
0.0
 10
157.9951795394943
 20
39.03982203885116
 30
0.0
 10
156.5430717924615
 20
37.98872340630143
 30
0.0
 10
155.2391031512944
 20
37.04407822424593
 30
0.0
 10
152.1629773925148
 20
36.30544975220836
 30
0.0
 10
152.0754719671895
 20
38.32014159198247
 30
0.0
 10
151.9635063639188
 20
40.8881157666877
 30
0.0
 10
155.1571098787454
 20
40.11503633979763
 30
0.0
 10
156.2085530208437
 20
39.35298121846036
 30
0.0
 10
159.1399847692428
 20
37.22770181360974
 30
0.0
 10
161.6235541045594
 20
30.11978080844228
 30
0.0
 10
159.5544297561183
 20
27.15699869112742
 30
0.0
  0
SPLINE
  5
6F
330
6A
100
AcDbEntity
  8
Layer 2
 62
     7
420
 16777215
370
    35
100
AcDbSpline
210
0.0
220
0.0
230
1.0
 70
     8
 71
     3
 72
    26
 73
    22
 74
     0
 42
0.0000000001
 43
0.0000000001
 40
0.0
 40
0.0
 40
0.0
 40
0.0
 40
1.0
 40
1.0
 40
1.0
 40
2.0
 40
2.0
 40
2.0
 40
3.0
 40
3.0
 40
3.0
 40
4.0
 40
4.0
 40
4.0
 40
5.0
 40
5.0
 40
5.0
 40
6.0
 40
6.0
 40
6.0
 40
7.0
 40
7.0
 40
7.0
 40
7.0
 10
158.8847031937858
 20
49.70687118983023
 30
0.0
 10
160.1662787142987
 20
46.71239419405107
 30
0.0
 10
160.6568603113983
 20
42.63650172545199
 30
0.0
 10
158.4079019786272
 20
40.02270778079293
 30
0.0
 10
157.3771294094404
 20
38.82450357102304
 30
0.0
 10
156.3132839235953
 20
37.42407225626899
 30
0.0
 10
154.7547227260683
 20
36.95312770343533
 30
0.0
 10
153.4052788244959
 20
36.54626192662732
 30
0.0
 10
150.4845268721011
 20
36.64685871479662
 30
0.0
 10
151.0708821236906
 20
38.98986815431503
 30
0.0
 10
151.4842935819206
 20
40.64351398723495
 30
0.0
 10
153.4924397402727
 20
40.95219454271334
 30
0.0
 10
154.8684108770815
 20
40.46884764613279
 30
0.0
 10
156.3063937326248
 20
39.96448566709221
 30
0.0
 10
157.1087564711395
 20
38.6281331283638
 30
0.0
 10
157.5421494831839
 20
37.31210665299837
 30
0.0
 10
158.481282512463
 20
34.4637017057938
 30
0.0
 10
159.2843342700748
 20
29.50620930251928
 30
0.0
 10
157.3247639580646
 20
26.82213540996113
 30
0.0
 10
157.246904800098
 20
26.71568195946691
 30
0.0
 10
157.2103867879543
 20
26.69914550113771
 30
0.0
 10
157.0991102037808
 20
26.59854871296842
 30
0.0
  0
ENDBLK
  5
6D
330
6A
100
AcDbEntity
  8
0
100
AcDbBlockEnd
  0
BLOCK
  5
72
330
70
100
AcDbEntity
  8
0
100
AcDbBlockBegin
  2
block 12
 70
     0
 71
     0
 10
0.0
 20
0.0
 30
0.0
  3
block 12
  1

  0
SPLINE
  5
74
330
70
100
AcDbEntity
  8
Layer 2
 62
     7
420
 16777215
370
    70
100
AcDbSpline
210
0.0
220
0.0
230
1.0
 70
     8
 71
     3
 72
    44
 73
    40
 74
     0
 42
0.0000000001
 43
0.0000000001
 40
0.0
 40
0.0
 40
0.0
 40
0.0
 40
1.0
 40
1.0
 40
1.0
 40
2.0
 40
2.0
 40
2.0
 40
3.0
 40
3.0
 40
3.0
 40
4.0
 40
4.0
 40
4.0
 40
5.0
 40
5.0
 40
5.0
 40
6.0
 40
6.0
 40
6.0
 40
7.0
 40
7.0
 40
7.0
 40
8.0
 40
8.0
 40
8.0
 40
9.0
 40
9.0
 40
9.0
 40
10.0
 40
10.0
 40
10.0
 40
11.0
 40
11.0
 40
11.0
 40
12.0
 40
12.0
 40
12.0
 40
13.0
 40
13.0
 40
13.0
 40
13.0
 10
187.9781900571721
 20
58.30307344462562
 30
0.0
 10
187.3949353915193
 20
59.23152667790045
 30
0.0
 10
189.1819064197184
 20
59.35830619175765
 30
0.0
 10
189.5160806817877
 20
58.38954534130539
 30
0.0
 10
189.8299288804939
 20
57.47762856635976
 30
0.0
 10
188.9342040543289
 20
56.7596706672337
 30
0.0
 10
188.2041883210045
 20
56.48923067164159
 30
0.0
 10
186.0275769934237
 20
55.68342283764164
 30
0.0
 10
184.2640326145243
 20
57.35222709069667
 30
0.0
 10
185.2152234780017
 20
59.53090547556867
 30
0.0
 10
185.9321478484823
 20
61.17214896474169
 30
0.0
 10
188.204532830553
 20
61.95453014944193
 30
0.0
 10
189.7637830471771
 20
61.01264104377462
 30
0.0
 10
191.4439561153335
 20
59.99806042336854
 30
0.0
 10
191.5927842402963
 20
57.40459254207246
 30
0.0
 10
190.7411566363425
 20
55.84637585409396
 30
0.0
 10
187.4979437465283
 20
49.91150986165407
 30
0.0
 10
177.8837157758416
 20
52.50325519520752
 30
0.0
 10
173.1308620443909
 20
54.61923284224797
 30
0.0
 10
170.4557454000944
 20
55.81054686104736
 30
0.0
 10
167.7575466160467
 20
56.81582572364327
 30
0.0
 10
164.8698675803103
 20
57.27367891363297
 30
0.0
 10
162.5599310574503
 20
57.63989256371503
 30
0.0
 10
159.7025688619841
 20
58.07638616169618
 30
0.0
 10
157.5018418660065
 20
57.10280217756458
 30
0.0
 10
153.606127891286
 20
55.37887639674556
 30
0.0
 10
154.6424126132491
 20
49.65588377664853
 30
0.0
 10
159.0648816876644
 20
49.81883679310085
 30
0.0
 10
160.9517604849357
 20
49.88808321235437
 30
0.0
 10
162.1499646947056
 20
51.69331324662529
 30
0.0
 10
161.2976480716547
 20
53.39071179220788
 30
0.0
 10
160.9035291481422
 20
54.17584905329632
 30
0.0
 10
160.0081488315257
 20
55.05021428745273
 30
0.0
 10
159.0645371781158
 20
54.95271808522016
 30
0.0
 10
158.1615776514318
 20
54.86004501666694
 30
0.0
 10
157.3874646958962
 20
53.90299749086453
 30
0.0
 10
157.9186984197217
 20
53.05343694420192
 30
0.0
 10
158.4468315576105
 20
52.20766600257308
 30
0.0
 10
159.8579426683688
 20
52.70203720470644
 30
0.0
 10
159.2884683846571
 20
53.16781411431221
 30
0.0
  0
SPLINE
  5
75
330
70
100
AcDbEntity
  8
Layer 2
 62
     7
420
 16777215
370
    35
100
AcDbSpline
210
0.0
220
0.0
230
1.0
 70
     8
 71
     3
 72
    20
 73
    16
 74
     0
 42
0.0000000001
 43
0.0000000001
 40
0.0
 40
0.0
 40
0.0
 40
0.0
 40
1.0
 40
1.0
 40
1.0
 40
2.0
 40
2.0
 40
2.0
 40
3.0
 40
3.0
 40
3.0
 40
4.0
 40
4.0
 40
4.0
 40
5.0
 40
5.0
 40
5.0
 40
5.0
 10
190.6574408160509
 20
55.62416719529535
 30
0.0
 10
188.575914123863
 20
52.86499022115876
 30
0.0
 10
182.1697590690409
 20
52.94526094596507
 30
0.0
 10
179.1594346340296
 20
53.72591958292269
 30
0.0
 10
175.1848279726969
 20
54.75669215210944
 30
0.0
 10
173.3255099393075
 20
55.87910426120384
 30
0.0
 10
169.4473659515618
 20
57.18651799785615
 30
0.0
 10
165.8348388257288
 20
58.40401474234344
 30
0.0
 10
160.2179551465775
 20
60.60577526696662
 30
0.0
 10
156.4972520225076
 20
58.41435002879919
 30
0.0
 10
153.4166476395972
 20
56.60050725581515
 30
0.0
 10
152.4782036294152
 20
52.94491643641655
 30
0.0
 10
154.9345567103983
 20
50.60052895870404
 30
0.0
 10
155.5960150435663
 20
49.96869844670922
 30
0.0
 10
157.4973632418757
 20
49.59387205791403
 30
0.0
 10
158.2835340316097
 20
49.93080239637147
 30
0.0
  0
SPLINE
  5
76
330
70
100
AcDbEntity
  8
Layer 2
 62
     7
420
 16777215
370
    70
100
AcDbSpline
210
0.0
220
0.0
230
1.0
 70
     8
 71
     3
 72
    44
 73
    40
 74
     0
 42
0.0000000001
 43
0.0000000001
 40
0.0
 40
0.0
 40
0.0
 40
0.0
 40
1.0
 40
1.0
 40
1.0
 40
2.0
 40
2.0
 40
2.0
 40
3.0
 40
3.0
 40
3.0
 40
4.0
 40
4.0
 40
4.0
 40
5.0
 40
5.0
 40
5.0
 40
6.0
 40
6.0
 40
6.0
 40
7.0
 40
7.0
 40
7.0
 40
8.0
 40
8.0
 40
8.0
 40
9.0
 40
9.0
 40
9.0
 40
10.0
 40
10.0
 40
10.0
 40
11.0
 40
11.0
 40
11.0
 40
12.0
 40
12.0
 40
12.0
 40
13.0
 40
13.0
 40
13.0
 40
13.0
 10
194.7794975641524
 20
58.30307344462562
 30
0.0
 10
195.3665418348389
 20
59.23152667790045
 30
0.0
 10
193.5682019915385
 20
59.35830619175765
 30
0.0
 10
193.2319606721781
 20
58.38954534130539
 30
0.0
 10
192.9157009066322
 20
57.47762856635976
 30
0.0
 10
193.8172823951221
 20
56.7596706672337
 30
0.0
 10
194.5521212621259
 20
56.48923067164159
 30
0.0
 10
196.7428574811962
 20
55.68342283764164
 30
0.0
 10
198.5177706751969
 20
57.35222709069667
 30
0.0
 10
197.560378639846
 20
59.53090547556867
 30
0.0
 10
196.8389756452347
 20
61.17214896474169
 30
0.0
 10
194.5521212621259
 20
61.95453014944193
 30
0.0
 10
192.9821912494975
 20
61.01264104377462
 30
0.0
 10
191.2913383853369
 20
59.99806042336854
 30
0.0
 10
191.1418212412771
 20
57.40459254207246
 30
0.0
 10
191.9986164884587
 20
55.84637585409396
 30
0.0
 10
195.2631889702814
 20
49.91150986165407
 30
0.0
 10
204.9394286597027
 20
52.50325519520752
 30
0.0
 10
209.7229437409721
 20
54.61923284224797
 30
0.0
 10
212.4152858626948
 20
55.81054686104736
 30
0.0
 10
215.1307101241687
 20
56.81582572364327
 30
0.0
 10
218.037337185074
 20
57.27367891363297
 30
0.0
 10
220.3620876185206
 20
57.63989256371503
 30
0.0
 10
223.2380533296072
 20
58.07638616169618
 30
0.0
 10
225.4529052170743
 20
57.10280217756458
 30
0.0
 10
229.3737683888371
 20
55.37887639674556
 30
0.0
 10
228.330937985452
 20
49.65588377664853
 30
0.0
 10
223.8798746185092
 20
49.81883679310085
 30
0.0
 10
221.980593477491
 20
49.88808321235437
 30
0.0
 10
220.7748100576535
 20
51.69331324662529
 30
0.0
 10
221.6322943239322
 20
53.39071179220788
 30
0.0
 10
222.0295138333815
 20
54.17584905329632
 30
0.0
 10
222.9304063027743
 20
55.05021428745273
 30
0.0
 10
223.8802191280577
 20
54.95271808522016
 30
0.0
 10
224.7890353170666
 20
54.86004501666694
 30
0.0
 10
225.5683159158301
 20
53.90299749086453
 30
0.0
 10
225.0339816060679
 20
53.05343694420192
 30
0.0
 10
224.5020588631453
 20
52.20766600257308
 30
0.0
 10
223.0816459945768
 20
52.70203720470644
 30
0.0
 10
223.6549098833224
 20
53.16781411431221
 30
0.0
  0
SPLINE
  5
77
330
70
100
AcDbEntity
  8
Layer 2
 62
     7
420
 16777215
370
    35
100
AcDbSpline
210
0.0
220
0.0
230
1.0
 70
     8
 71
     3
 72
    20
 73
    16
 74
     0
 42
0.0000000001
 43
0.0000000001
 40
0.0
 40
0.0
 40
0.0
 40
0.0
 40
1.0
 40
1.0
 40
1.0
 40
2.0
 40
2.0
 40
2.0
 40
3.0
 40
3.0
 40
3.0
 40
4.0
 40
4.0
 40
4.0
 40
5.0
 40
5.0
 40
5.0
 40
5.0
 10
192.0826768182988
 20
55.62416719529535
 30
0.0
 10
194.1779838924277
 20
52.86499022115876
 30
0.0
 10
200.6254800930728
 20
52.94526094596507
 30
0.0
 10
203.65544157235
 20
53.72591958292269
 30
0.0
 10
207.6558864498222
 20
54.75669215210944
 30
0.0
 10
209.5272623174098
 20
55.87910426120384
 30
0.0
 10
213.4305555021979
 20
57.18651799785615
 30
0.0
 10
217.0661647677821
 20
58.40401474234344
 30
0.0
 10
222.7195664590771
 20
60.60577526696662
 30
0.0
 10
226.4640407419951
 20
58.41435002879919
 30
0.0
 10
229.5649711882685
 20
56.60050725581515
 30
0.0
 10
230.5085828416784
 20
52.94491643641655
 30
0.0
 10
228.0367268310117
 20
50.60052895870404
 30
0.0
 10
227.3707898737129
 20
49.96869844670922
 30
0.0
 10
225.4577283507536
 20
49.59387205791403
 30
0.0
 10
224.6663899177917
 20
49.93080239637147
 30
0.0
  0
ENDBLK
  5
73
330
70
100
AcDbEntity
  8
0
100
AcDbBlockEnd
  0
BLOCK
  5
7A
330
78
100
AcDbEntity
  8
0
100
AcDbBlockBegin
  2
block 13
 70
     0
 71
     0
 10
0.0
 20
0.0
 30
0.0
  3
block 13
  1

  0
SPLINE
  5
7C
330
78
100
AcDbEntity
  8
Layer 2
 62
     7
420
 16777215
370
    35
100
AcDbSpline
210
0.0
220
0.0
230
1.0
 70
     8
 71
     3
 72
    17
 73
    13
 74
     0
 42
0.0000000001
 43
0.0000000001
 40
0.0
 40
0.0
 40
0.0
 40
0.0
 40
1.0
 40
1.0
 40
1.0
 40
2.0
 40
2.0
 40
2.0
 40
3.0
 40
3.0
 40
3.0
 40
4.0
 40
4.0
 40
4.0
 40
4.0
 10
223.9267279171086
 20
49.81883679310085
 30
0.0
 10
221.0056314551653
 20
44.90716415978016
 30
0.0
 10
223.9232828216234
 20
39.03982203885116
 30
0.0
 10
225.3846923264663
 20
37.98872340630143
 30
0.0
 10
226.6972737063465
 20
37.04407822424593
 30
0.0
 10
229.7933810189406
 20
36.30544975220836
 30
0.0
 10
229.881575463363
 20
38.32014159198247
 30
0.0
 10
229.9938855761821
 20
40.8881157666877
 30
0.0
 10
226.7799559979925
 20
40.11503633979763
 30
0.0
 10
225.7216226649238
 20
39.35298121846036
 30
0.0
 10
222.7712428913558
 20
37.22770181360974
 30
0.0
 10
220.2718261168071
 20
30.11978080844228
 30
0.0
 10
222.3540418280921
 20
27.15699869112742
 30
0.0
  0
SPLINE
  5
7D
330
78
100
AcDbEntity
  8
Layer 2
 62
     7
420
 16777215
370
    35
100
AcDbSpline
210
0.0
220
0.0
230
1.0
 70
     8
 71
     3
 72
    26
 73
    22
 74
     0
 42
0.0000000001
 43
0.0000000001
 40
0.0
 40
0.0
 40
0.0
 40
0.0
 40
1.0
 40
1.0
 40
1.0
 40
2.0
 40
2.0
 40
2.0
 40
3.0
 40
3.0
 40
3.0
 40
4.0
 40
4.0
 40
4.0
 40
5.0
 40
5.0
 40
5.0
 40
6.0
 40
6.0
 40
6.0
 40
7.0
 40
7.0
 40
7.0
 40
7.0
 10
223.0275579954584
 20
49.70687118983023
 30
0.0
 10
221.7384032648779
 20
46.71239419405107
 30
0.0
 10
221.2447210818416
 20
42.63650172545199
 30
0.0
 10
223.5078043061022
 20
40.02270778079293
 30
0.0
 10
224.545811575808
 20
38.82450357102304
 30
0.0
 10
225.6158582335266
 20
37.42407225626899
 30
0.0
 10
227.1850992270579
 20
36.95312770343533
 30
0.0
 10
228.5428113577949
 20
36.54626192662732
 30
0.0
 10
231.4828558449071
 20
36.64685871479662
 30
0.0
 10
230.8927109882838
 20
38.98986815431503
 30
0.0
 10
230.4765434536656
 20
40.64351398723495
 30
0.0
 10
228.4553059324695
 20
40.95219454271334
 30
0.0
 10
227.0700330378505
 20
40.46884764613279
 30
0.0
 10
225.6230929340456
 20
39.96448566709221
 30
0.0
 10
224.8155625523031
 20
38.6281331283638
 30
0.0
 10
224.3790689543219
 20
37.31210665299837
 30
0.0
 10
223.4344237722664
 20
34.4637017057938
 30
0.0
 10
222.6262043714268
 20
29.50620930251928
 30
0.0
 10
224.5981770271838
 20
26.82213540996113
 30
0.0
 10
224.6767252042475
 20
26.71568195946691
 30
0.0
 10
224.7132432163911
 20
26.69914550113771
 30
0.0
 10
224.8255533292103
 20
26.59854871296842
 30
0.0
  0
ENDBLK
  5
7B
330
78
100
AcDbEntity
  8
0
100
AcDbBlockEnd
  0
BLOCK
  5
88
330
86
100
AcDbEntity
  8
0
100
AcDbBlockBegin
  2
block 14
 70
     0
 71
     0
 10
0.0
 20
0.0
 30
0.0
  3
block 14
  1

  0
SPLINE
  5
8A
330
86
100
AcDbEntity
  8
Layer 2
 62
     7
420
 16777215
370
    70
100
AcDbSpline
210
0.0
220
0.0
230
1.0
 70
     8
 71
     3
 72
    44
 73
    40
 74
     0
 42
0.0000000001
 43
0.0000000001
 40
0.0
 40
0.0
 40
0.0
 40
0.0
 40
1.0
 40
1.0
 40
1.0
 40
2.0
 40
2.0
 40
2.0
 40
3.0
 40
3.0
 40
3.0
 40
4.0
 40
4.0
 40
4.0
 40
5.0
 40
5.0
 40
5.0
 40
6.0
 40
6.0
 40
6.0
 40
7.0
 40
7.0
 40
7.0
 40
8.0
 40
8.0
 40
8.0
 40
9.0
 40
9.0
 40
9.0
 40
10.0
 40
10.0
 40
10.0
 40
11.0
 40
11.0
 40
11.0
 40
12.0
 40
12.0
 40
12.0
 40
13.0
 40
13.0
 40
13.0
 40
13.0
 10
187.9781900571721
 20
18.72960611510927
 30
0.0
 10
187.3949353915193
 20
17.82113443564888
 30
0.0
 10
189.1819064197184
 20
17.69745550772841
 30
0.0
 10
189.5160806817877
 20
18.64520127572064
 30
0.0
 10
189.8299288804939
 20
19.53748100640035
 30
0.0
 10
188.9342040543289
 20
20.23993597584279
 30
0.0
 10
188.2041883210045
 20
20.50417479956146
 30
0.0
 10
186.0275769934237
 20
21.29310166568367
 30
0.0
 10
184.2640326145243
 20
19.66047091522377
 30
0.0
 10
185.2152234780017
 20
17.52795680985412
 30
0.0
 10
185.9321478484823
 20
15.92288682327622
 30
0.0
 10
188.204532830553
 20
15.15704209690518
 30
0.0
 10
189.7637830471771
 20
16.07860513920951
 30
0.0
 10
191.4439561153335
 20
17.07079263896147
 30
0.0
 10
191.5927842402963
 20
19.60879448294503
 30
0.0
 10
190.7411566363425
 20
21.1335937447166
 30
0.0
 10
187.4979437465283
 20
26.94064669465373
 30
0.0
 10
177.8837157758416
 20
24.40540092705837
 30
0.0
 10
173.1308620443909
 20
22.3345540308747
 30
0.0
 10
170.4557454000944
 20
21.16873371866615
 30
0.0
 10
167.7575466160467
 20
20.18515895762732
 30
0.0
 10
164.8698675803103
 20
19.73764105409337
 30
0.0
 10
162.5599310574503
 20
19.37900661407886
 30
0.0
 10
159.7025688619841
 20
18.95215928345641
 30
0.0
 10
157.5018418660065
 20
19.90438367557946
 30
0.0
 10
153.606127891286
 20
21.5914469347063
 30
0.0
 10
154.6424126132491
 20
27.19110513643139
 30
0.0
 10
159.0648816876644
 20
27.03159721546432
 30
0.0
 10
160.9517604849357
 20
26.96338432485638
 30
0.0
 10
162.1499646947056
 20
25.19742837911731
 30
0.0
 10
161.2976480716547
 20
23.53585882658131
 30
0.0
 10
160.9035291481422
 20
22.76794704291913
 30
0.0
 10
160.0081488315257
 20
21.91252983393159
 30
0.0
 10
159.0645371781158
 20
22.00795897887301
 30
0.0
 10
158.1615776514318
 20
22.09822048058656
 30
0.0
 10
157.3874646958962
 20
23.03494194302599
 30
0.0
 10
157.9186984197217
 20
23.86624348361677
 30
0.0
 10
158.4468315576105
 20
24.69444443827084
 30
0.0
 10
159.8579426683688
 20
24.21040852259323
 30
0.0
 10
159.2884683846571
 20
23.75462238989468
 30
0.0
  0
SPLINE
  5
8B
330
86
100
AcDbEntity
  8
Layer 2
 62
     7
420
 16777215
370
    35
100
AcDbSpline
210
0.0
220
0.0
230
1.0
 70
     8
 71
     3
 72
    20
 73
    16
 74
     0
 42
0.0000000001
 43
0.0000000001
 40
0.0
 40
0.0
 40
0.0
 40
0.0
 40
1.0
 40
1.0
 40
1.0
 40
2.0
 40
2.0
 40
2.0
 40
3.0
 40
3.0
 40
3.0
 40
4.0
 40
4.0
 40
4.0
 40
5.0
 40
5.0
 40
5.0
 40
5.0
 10
190.6574408160509
 20
21.35132377938439
 30
0.0
 10
188.575914123863
 20
24.05090060162616
 30
0.0
 10
182.1697590690409
 20
23.97235242456247
 30
0.0
 10
179.1594346340296
 20
23.20823024593405
 30
0.0
 10
175.1848279726969
 20
22.20019530694995
 30
0.0
 10
173.3255099393075
 20
21.10155435670378
 30
0.0
 10
169.4473659515618
 20
19.82204589348199
 30
0.0
 10
165.8348388257288
 20
18.6307318746826
 30
0.0
 10
160.2179551465775
 20
16.4768581773044
 30
0.0
 10
156.4972520225076
 20
18.62039658822685
 30
0.0
 10
153.4166476395972
 20
20.39565429177609
 30
0.0
 10
152.4782036294152
 20
23.97304144365952
 30
0.0
 10
154.9345567103983
 20
26.26678601773886
 30
0.0
 10
155.5960150435663
 20
26.88518065734121
 30
0.0
 10
157.4973632418757
 20
27.25208332652031
 30
0.0
 10
158.2835340316097
 20
26.9223876885819
 30
0.0
  0
SPLINE
  5
8C
330
86
100
AcDbEntity
  8
Layer 2
 62
     7
420
 16777215
370
    70
100
AcDbSpline
210
0.0
220
0.0
230
1.0
 70
     8
 71
     3
 72
    44
 73
    40
 74
     0
 42
0.0000000001
 43
0.0000000001
 40
0.0
 40
0.0
 40
0.0
 40
0.0
 40
1.0
 40
1.0
 40
1.0
 40
2.0
 40
2.0
 40
2.0
 40
3.0
 40
3.0
 40
3.0
 40
4.0
 40
4.0
 40
4.0
 40
5.0
 40
5.0
 40
5.0
 40
6.0
 40
6.0
 40
6.0
 40
7.0
 40
7.0
 40
7.0
 40
8.0
 40
8.0
 40
8.0
 40
9.0
 40
9.0
 40
9.0
 40
10.0
 40
10.0
 40
10.0
 40
11.0
 40
11.0
 40
11.0
 40
12.0
 40
12.0
 40
12.0
 40
13.0
 40
13.0
 40
13.0
 40
13.0
 10
194.7794975641524
 20
18.72960611510927
 30
0.0
 10
195.3665418348389
 20
17.82113443564888
 30
0.0
 10
193.5682019915385
 20
17.69745550772841
 30
0.0
 10
193.2319606721781
 20
18.64520127572064
 30
0.0
 10
192.9157009066322
 20
19.53748100640035
 30
0.0
 10
193.8172823951221
 20
20.23993597584279
 30
0.0
 10
194.5521212621259
 20
20.50417479956146
 30
0.0
 10
196.7428574811962
 20
21.29310166568367
 30
0.0
 10
198.5177706751969
 20
19.66047091522377
 30
0.0
 10
197.560378639846
 20
17.52795680985412
 30
0.0
 10
196.8389756452347
 20
15.92288682327622
 30
0.0
 10
194.5521212621259
 20
15.15704209690518
 30
0.0
 10
192.9821912494975
 20
16.07860513920951
 30
0.0
 10
191.2913383853369
 20
17.07079263896147
 30
0.0
 10
191.1418212412771
 20
19.60879448294503
 30
0.0
 10
191.9986164884587
 20
21.1335937447166
 30
0.0
 10
195.2631889702814
 20
26.94064669465373
 30
0.0
 10
204.9394286597027
 20
24.40540092705837
 30
0.0
 10
209.7229437409721
 20
22.3345540308747
 30
0.0
 10
212.4152858626948
 20
21.16873371866615
 30
0.0
 10
215.1307101241687
 20
20.18515895762732
 30
0.0
 10
218.037337185074
 20
19.73764105409337
 30
0.0
 10
220.3620876185206
 20
19.37900661407886
 30
0.0
 10
223.2380533296072
 20
18.95215928345641
 30
0.0
 10
225.4529052170743
 20
19.90438367557946
 30
0.0
 10
229.3737683888371
 20
21.5914469347063
 30
0.0
 10
228.330937985452
 20
27.19110513643139
 30
0.0
 10
223.8798746185092
 20
27.03159721546432
 30
0.0
 10
221.980593477491
 20
26.96338432485638
 30
0.0
 10
220.7748100576535
 20
25.19742837911731
 30
0.0
 10
221.6322943239322
 20
23.53585882658131
 30
0.0
 10
222.0295138333815
 20
22.76794704291913
 30
0.0
 10
222.9304063027743
 20
21.91252983393159
 30
0.0
 10
223.8802191280577
 20
22.00795897887301
 30
0.0
 10
224.7890353170666
 20
22.09822048058656
 30
0.0
 10
225.5683159158301
 20
23.03494194302599
 30
0.0
 10
225.0339816060679
 20
23.86624348361677
 30
0.0
 10
224.5020588631453
 20
24.69444443827084
 30
0.0
 10
223.0816459945768
 20
24.21040852259323
 30
0.0
 10
223.6549098833224
 20
23.75462238989468
 30
0.0
  0
SPLINE
  5
8D
330
86
100
AcDbEntity
  8
Layer 2
 62
     7
420
 16777215
370
    35
100
AcDbSpline
210
0.0
220
0.0
230
1.0
 70
     8
 71
     3
 72
    20
 73
    16
 74
     0
 42
0.0000000001
 43
0.0000000001
 40
0.0
 40
0.0
 40
0.0
 40
0.0
 40
1.0
 40
1.0
 40
1.0
 40
2.0
 40
2.0
 40
2.0
 40
3.0
 40
3.0
 40
3.0
 40
4.0
 40
4.0
 40
4.0
 40
5.0
 40
5.0
 40
5.0
 40
5.0
 10
192.0826768182988
 20
21.35132377938439
 30
0.0
 10
194.1779838924277
 20
24.05090060162616
 30
0.0
 10
200.6254800930728
 20
23.97235242456247
 30
0.0
 10
203.65544157235
 20
23.20823024593405
 30
0.0
 10
207.6558864498222
 20
22.20019530694995
 30
0.0
 10
209.5272623174098
 20
21.10155435670378
 30
0.0
 10
213.4305555021979
 20
19.82204589348199
 30
0.0
 10
217.0661647677821
 20
18.6307318746826
 30
0.0
 10
222.7195664590771
 20
16.4768581773044
 30
0.0
 10
226.4640407419951
 20
18.62039658822685
 30
0.0
 10
229.5649711882685
 20
20.39565429177609
 30
0.0
 10
230.5085828416784
 20
23.97304144365952
 30
0.0
 10
228.0367268310117
 20
26.26678601773886
 30
0.0
 10
227.3707898737129
 20
26.88518065734121
 30
0.0
 10
225.4577283507536
 20
27.25208332652031
 30
0.0
 10
224.6663899177917
 20
26.9223876885819
 30
0.0
  0
ENDBLK
  5
89
330
86
100
AcDbEntity
  8
0
100
AcDbBlockEnd
  0
BLOCK
  5
90
330
8E
100
AcDbEntity
  8
0
100
AcDbBlockBegin
  2
block 15
 70
     0
 71
     0
 10
0.0
 20
0.0
 30
0.0
  3
block 15
  1

  0
SPLINE
  5
92
330
8E
100
AcDbEntity
  8
Layer 2
  6
AI-Linetype-5
 62
     7
420
 16777215
370
    35
100
AcDbSpline
210
0.0
220
0.0
230
1.0
 70
     8
 71
     3
 72
    17
 73
    13
 74
     0
 42
0.0000000001
 43
0.0000000001
 40
0.0
 40
0.0
 40
0.0
 40
0.0
 40
1.0
 40
1.0
 40
1.0
 40
2.0
 40
2.0
 40
2.0
 40
3.0
 40
3.0
 40
3.0
 40
4.0
 40
4.0
 40
4.0
 40
4.0
 10
191.0367458289769
 20
21.94112412645917
 30
0.0
 10
191.0388128862681
 20
26.03940971571237
 30
0.0
 10
186.3049071799863
 20
26.66331650809112
 30
0.0
 10
182.9989935523406
 20
26.62542045775337
 30
0.0
 10
179.4650146035713
 20
26.58476833102742
 30
0.0
 10
176.9766221345753
 20
25.60636121321647
 30
0.0
 10
173.7330647352126
 20
24.77368163443158
 30
0.0
 10
171.5206244145851
 20
24.20592989846241
 30
0.0
 10
170.0257974835352
 20
23.02701822340991
 30
0.0
 10
167.8164577488445
 20
22.2684081975579
 30
0.0
 10
165.69910206361
 20
21.54149305017018
 30
0.0
 10
161.7131265871759
 20
20.76048990366404
 30
0.0
 10
159.3659830330752
 20
21.37302788094147
 30
0.0
  0
SPLINE
  5
94
330
8E
100
AcDbEntity
  8
Layer 2
  6
AI-Linetype-6
 62
     7
420
 16777215
370
    35
100
AcDbSpline
210
0.0
220
0.0
230
1.0
 70
     8
 71
     3
 72
    17
 73
    13
 74
     0
 42
0.0000000001
 43
0.0000000001
 40
0.0
 40
0.0
 40
0.0
 40
0.0
 40
1.0
 40
1.0
 40
1.0
 40
2.0
 40
2.0
 40
2.0
 40
3.0
 40
3.0
 40
3.0
 40
4.0
 40
4.0
 40
4.0
 40
4.0
 10
191.3416367794215
 20
21.94112412645917
 30
0.0
 10
191.3395697221304
 20
26.03940971571237
 30
0.0
 10
196.1041367782309
 20
26.66331650809112
 30
0.0
 10
199.4317545074337
 20
26.62542045775337
 30
0.0
 10
202.9884710864057
 20
26.58476833102742
 30
0.0
 10
205.4930555041823
 20
25.60636121321647
 30
0.0
 10
208.756938966908
 20
24.77368163443158
 30
0.0
 10
210.984193198122
 20
24.20592989846241
 30
0.0
 10
212.4886663965306
 20
23.02701822340991
 30
0.0
 10
214.7121310227109
 20
22.2684081975579
 30
0.0
 10
216.8429225803379
 20
21.54149305017018
 30
0.0
 10
220.8554252920084
 20
20.76048990366404
 30
0.0
 10
223.2173827566957
 20
21.37302788094147
 30
0.0
  0
ENDBLK
  5
91
330
8E
100
AcDbEntity
  8
0
100
AcDbBlockEnd
  0
BLOCK
  5
98
330
96
100
AcDbEntity
  8
0
100
AcDbBlockBegin
  2
block 16
 70
     0
 71
     0
 10
0.0
 20
0.0
 30
0.0
  3
block 16
  1

  0
INSERT
  5
9B
330
96
100
AcDbEntity
  8
Layer 2
100
AcDbBlockReference
  2
block 17
 10
0.0
 20
0.0
 30
0.0
  0
INSERT
  5
AF
330
96
100
AcDbEntity
  8
Layer 2
100
AcDbBlockReference
  2
block 20
 10
0.0
 20
0.0
 30
0.0
  0
ENDBLK
  5
99
330
96
100
AcDbEntity
  8
0
100
AcDbBlockEnd
  0
BLOCK
  5
9C
330
9A
100
AcDbEntity
  8
0
100
AcDbBlockBegin
  2
block 17
 70
     0
 71
     0
 10
0.0
 20
0.0
 30
0.0
  3
block 17
  1

  0
INSERT
  5
9F
330
9A
100
AcDbEntity
  8
Layer 2
100
AcDbBlockReference
  2
block 18
 10
0.0
 20
0.0
 30
0.0
  0
INSERT
  5
A7
330
9A
100
AcDbEntity
  8
Layer 2
100
AcDbBlockReference
  2
block 19
 10
0.0
 20
0.0
 30
0.0
  0
ENDBLK
  5
9D
330
9A
100
AcDbEntity
  8
0
100
AcDbBlockEnd
  0
BLOCK
  5
A0
330
9E
100
AcDbEntity
  8
0
100
AcDbBlockBegin
  2
block 18
 70
     0
 71
     0
 10
0.0
 20
0.0
 30
0.0
  3
block 18
  1

  0
SPLINE
  5
A2
330
9E
100
AcDbEntity
  8
Layer 2
 62
     7
420
 16777215
370
   140
100
AcDbSpline
210
0.0
220
0.0
230
1.0
 70
     8
 71
     3
 72
    41
 73
    37
 74
     0
 42
0.0000000001
 43
0.0000000001
 40
0.0
 40
0.0
 40
0.0
 40
0.0
 40
1.0
 40
1.0
 40
1.0
 40
2.0
 40
2.0
 40
2.0
 40
3.0
 40
3.0
 40
3.0
 40
4.0
 40
4.0
 40
4.0
 40
5.0
 40
5.0
 40
5.0
 40
6.0
 40
6.0
 40
6.0
 40
7.0
 40
7.0
 40
7.0
 40
8.0
 40
8.0
 40
8.0
 40
9.0
 40
9.0
 40
9.0
 40
10.0
 40
10.0
 40
10.0
 40
11.0
 40
11.0
 40
11.0
 40
12.0
 40
12.0
 40
12.0
 40
12.0
 10
69.81916637794451
 20
41.83655055377697
 30
0.0
 10
69.64777287755334
 20
41.86342229856192
 30
0.0
 10
69.44502900824638
 20
41.84137368745633
 30
0.0
 10
69.27794187721177
 20
41.8203586049963
 30
0.0
 10
69.00939668413655
 20
40.59011500721358
 30
0.0
 10
70.79981280782089
 20
40.56324326242864
 30
0.0
 10
71.05251056166396
 20
41.72561847915193
 30
0.0
 10
71.28505450691833
 20
42.79290906048233
 30
0.0
 10
70.19761011699921
 20
43.35618217232068
 30
0.0
 10
69.34787731556234
 20
43.09263236769907
 30
0.0
 10
67.39054631561764
 20
42.48422850500395
 30
0.0
 10
67.95536972042436
 20
39.58586967326325
 30
0.0
 10
69.81916637794451
 20
39.26685383132912
 30
0.0
 10
74.10917153095188
 20
38.53132594522828
 30
0.0
 10
76.08269447967724
 20
43.69311251077811
 30
0.0
 10
76.62874211408935
 20
46.86018879036829
 30
0.0
 10
77.85691865458091
 20
52.66551919256279
 30
0.0
 10
73.63529864695576
 20
56.98325736422641
 30
0.0
 10
72.53734671580663
 20
58.232448987178
 30
0.0
 10
81.98724363184694
 20
52.55355358929217
 30
0.0
 10
95.56884356334737
 20
54.90655380571781
 30
0.0
 10
99.51416691305549
 20
56.46132539821106
 30
0.0
 10
102.2767889826773
 20
57.54963106200148
 30
0.0
 10
106.1003282069819
 20
62.26596678130851
 30
0.0
 10
102.3102064088843
 20
65.39514701056093
 30
0.0
 10
100.8021158602161
 20
66.6398600093817
 30
0.0
 10
98.3972669567375
 20
66.1034586423283
 30
0.0
 10
97.30947805726986
 20
64.69785968434637
 30
0.0
 10
96.09249807710535
 20
63.12517359532982
 30
0.0
 10
96.8881428794238
 20
60.36875269758143
 30
0.0
 10
98.84426809594866
 20
59.83510740691623
 30
0.0
 10
100.5535522209554
 20
59.3686414782134
 30
0.0
 10
101.9000677913653
 20
61.41743976329148
 30
0.0
 10
100.8811808016026
 20
62.82717283585571
 30
0.0
 10
99.20410831938301
 20
65.14710013562295
 30
0.0
 10
97.62470429417021
 20
61.36851940740093
 30
0.0
 10
99.62561575200333
 20
61.70786131269804
 30
0.0
  0
SPLINE
  5
A3
330
9E
100
AcDbEntity
  8
Layer 2
  6
AI-Linetype-7
 62
     7
420
 16777215
370
    35
100
AcDbSpline
210
0.0
220
0.0
230
1.0
 70
     8
 71
     3
 72
    11
 73
     7
 74
     0
 42
0.0000000001
 43
0.0000000001
 40
0.0
 40
0.0
 40
0.0
 40
0.0
 40
1.0
 40
1.0
 40
1.0
 40
2.0
 40
2.0
 40
2.0
 40
2.0
 10
72.16355385565703
 20
38.82243651373189
 30
0.0
 10
72.16355385565703
 20
38.82243651373189
 30
0.0
 10
82.43372800673532
 20
41.27878959471503
 30
0.0
 10
76.29387883292306
 20
55.00990667027531
 30
0.0
 10
76.29387883292306
 20
55.00990667027531
 30
0.0
 10
98.062920439894
 20
48.75843640274095
 30
0.0
 10
103.86790633254
 20
59.58671602242971
 30
0.0
  0
SPLINE
  5
A5
330
9E
100
AcDbEntity
  8
Layer 2
 62
     7
420
 16777215
370
    35
100
AcDbSpline
210
0.0
220
0.0
230
1.0
 70
     8
 71
     3
 72
    32
 73
    28
 74
     0
 42
0.0000000001
 43
0.0000000001
 40
0.0
 40
0.0
 40
0.0
 40
0.0
 40
1.0
 40
1.0
 40
1.0
 40
2.0
 40
2.0
 40
2.0
 40
3.0
 40
3.0
 40
3.0
 40
4.0
 40
4.0
 40
4.0
 40
5.0
 40
5.0
 40
5.0
 40
6.0
 40
6.0
 40
6.0
 40
7.0
 40
7.0
 40
7.0
 40
8.0
 40
8.0
 40
8.0
 40
9.0
 40
9.0
 40
9.0
 40
9.0
 10
69.26088865455978
 20
41.94851615704759
 30
0.0
 10
69.27863089630881
 20
41.83792859197108
 30
0.0
 10
69.2488308203614
 20
41.74181042793261
 30
0.0
 10
69.27794187721177
 20
41.63053384375903
 30
0.0
 10
70.68164603267681
 20
41.21608885688348
 30
0.0
 10
69.6419162152284
 20
43.19977483729033
 30
0.0
 10
68.92636988294203
 20
41.83655055377697
 30
0.0
 10
68.44560680797541
 20
40.92084417379757
 30
0.0
 10
69.57232528642636
 20
40.43611923902291
 30
0.0
 10
70.2601386000565
 20
40.37996418261334
 30
0.0
 10
71.90517169426329
 20
40.24457193004302
 30
0.0
 10
73.35245630761675
 20
41.42313909554699
 30
0.0
 10
73.94966360998481
 20
42.84148490682436
 30
0.0
 10
76.62874211408935
 20
48.75843640274095
 30
0.0
 10
73.63305933489035
 20
56.52402613604261
 30
0.0
 10
72.53734671580663
 20
58.232448987178
 30
0.0
 10
86.93819035369948
 20
52.98591307269103
 30
0.0
 10
102.5275919340035
 20
56.34935979494044
 30
0.0
 10
102.5279364435521
 20
61.93110350014223
 30
0.0
 10
102.6564385051519
 20
63.40870495376588
 30
0.0
 10
100.7418266892243
 20
65.5036675183463
 30
0.0
 10
98.93108450217696
 20
64.53180608195733
 30
0.0
 10
97.31826305075724
 20
63.66708711515962
 30
0.0
 10
97.47622067875595
 20
61.01849770609955
 30
0.0
 10
99.1848157846656
 20
60.59475096141382
 30
0.0
 10
99.73189694772329
 20
60.45901419929497
 30
0.0
 10
100.3847425421781
 20
60.3504936915096
 30
0.0
 10
100.7418266892243
 20
60.92616914709485
 30
0.0
  0
ENDBLK
  5
A1
330
9E
100
AcDbEntity
  8
0
100
AcDbBlockEnd
  0
BLOCK
  5
A8
330
A6
100
AcDbEntity
  8
0
100
AcDbBlockBegin
  2
block 19
 70
     0
 71
     0
 10
0.0
 20
0.0
 30
0.0
  3
block 19
  1

  0
SPLINE
  5
AA
330
A6
100
AcDbEntity
  8
Layer 2
 62
     7
420
 16777215
370
   140
100
AcDbSpline
210
0.0
220
0.0
230
1.0
 70
     8
 71
     3
 72
    41
 73
    37
 74
     0
 42
0.0000000001
 43
0.0000000001
 40
0.0
 40
0.0
 40
0.0
 40
0.0
 40
1.0
 40
1.0
 40
1.0
 40
2.0
 40
2.0
 40
2.0
 40
3.0
 40
3.0
 40
3.0
 40
4.0
 40
4.0
 40
4.0
 40
5.0
 40
5.0
 40
5.0
 40
6.0
 40
6.0
 40
6.0
 40
7.0
 40
7.0
 40
7.0
 40
8.0
 40
8.0
 40
8.0
 40
9.0
 40
9.0
 40
9.0
 40
10.0
 40
10.0
 40
10.0
 40
11.0
 40
11.0
 40
11.0
 40
12.0
 40
12.0
 40
12.0
 40
12.0
 10
138.7014390386753
 20
41.83655055377697
 30
0.0
 10
138.8752441059062
 20
41.86342229856192
 30
0.0
 10
139.0805717968271
 20
41.84137368745633
 30
0.0
 10
139.2500704947014
 20
41.8203586049963
 30
0.0
 10
139.5220607832618
 20
40.59011500721358
 30
0.0
 10
137.7078735007293
 20
40.56324326242864
 30
0.0
 10
137.4519029061752
 20
41.72561847915193
 30
0.0
 10
137.2160861202099
 20
42.79290906048233
 30
0.0
 10
138.3181721659413
 20
43.35618217232068
 30
0.0
 10
139.1792737824795
 20
43.09263236769907
 30
0.0
 10
141.1629597628863
 20
42.48422850500395
 30
0.0
 10
140.5902126384636
 20
39.58586967326325
 30
0.0
 10
138.7014390386753
 20
39.26685383132912
 30
0.0
 10
134.3542453006128
 20
38.53132594522828
 30
0.0
 10
132.3543673714253
 20
43.69311251077811
 30
0.0
 10
131.8007405269456
 20
46.86018879036829
 30
0.0
 10
130.5561997828991
 20
52.66551919256279
 30
0.0
 10
134.8344916112567
 20
56.98325736422641
 30
0.0
 10
135.9470851982181
 20
58.232448987178
 30
0.0
 10
126.3705810230949
 20
52.55355358929217
 30
0.0
 10
112.6070800499732
 20
54.90655380571781
 30
0.0
 10
108.6092189941151
 20
56.46132539821106
 30
0.0
 10
105.8095621480268
 20
57.54963106200148
 30
0.0
 10
101.934691000992
 20
62.26596678130851
 30
0.0
 10
105.7756279574971
 20
65.39514701056093
 30
0.0
 10
107.3038723147539
 20
66.6398600093817
 30
0.0
 10
109.7407606062454
 20
66.1034586423283
 30
0.0
 10
110.8433634162996
 20
64.69785968434637
 30
0.0
 10
112.076707600019
 20
63.12517359532982
 30
0.0
 10
111.2700384921478
 20
60.36875269758143
 30
0.0
 10
109.2879028047093
 20
59.83510740691623
 30
0.0
 10
107.5557087947257
 20
59.3686414782134
 30
0.0
 10
106.1912787277925
 20
61.41743976329148
 30
0.0
 10
107.2237738447218
 20
62.82717283585571
 30
0.0
 10
108.9232394475956
 20
65.14710013562295
 30
0.0
 10
110.5238308100427
 20
61.36851940740093
 30
0.0
 10
108.4960476074246
 20
61.70786131269804
 30
0.0
  0
SPLINE
  5
AB
330
A6
100
AcDbEntity
  8
Layer 2
  6
AI-Linetype-8
 62
     7
420
 16777215
370
    35
100
AcDbSpline
210
0.0
220
0.0
230
1.0
 70
     8
 71
     3
 72
    11
 73
     7
 74
     0
 42
0.0000000001
 43
0.0000000001
 40
0.0
 40
0.0
 40
0.0
 40
0.0
 40
1.0
 40
1.0
 40
1.0
 40
2.0
 40
2.0
 40
2.0
 40
2.0
 10
136.3258734468213
 20
38.82243651373189
 30
0.0
 10
136.3258734468213
 20
38.82243651373189
 30
0.0
 10
125.9182399858816
 20
41.27878959471503
 30
0.0
 10
132.1400824322428
 20
55.00990667027531
 30
0.0
 10
132.1400824322428
 20
55.00990667027531
 30
0.0
 10
110.0795857472197
 20
48.75843640274095
 30
0.0
 10
104.1969129513813
 20
59.58671602242971
 30
0.0
  0
SPLINE
  5
AD
330
A6
100
AcDbEntity
  8
Layer 2
 62
     7
420
 16777215
370
    35
100
AcDbSpline
210
0.0
220
0.0
230
1.0
 70
     8
 71
     3
 72
    32
 73
    28
 74
     0
 42
0.0000000001
 43
0.0000000001
 40
0.0
 40
0.0
 40
0.0
 40
0.0
 40
1.0
 40
1.0
 40
1.0
 40
2.0
 40
2.0
 40
2.0
 40
3.0
 40
3.0
 40
3.0
 40
4.0
 40
4.0
 40
4.0
 40
5.0
 40
5.0
 40
5.0
 40
6.0
 40
6.0
 40
6.0
 40
7.0
 40
7.0
 40
7.0
 40
8.0
 40
8.0
 40
8.0
 40
9.0
 40
9.0
 40
9.0
 40
9.0
 10
139.2672959721276
 20
41.94851615704759
 30
0.0
 10
139.2493814756043
 20
41.83792859197108
 30
0.0
 10
139.2796983158745
 20
41.74181042793261
 30
0.0
 10
139.2500704947014
 20
41.63053384375903
 30
0.0
 10
137.8275905688417
 20
41.21608885688348
 30
0.0
 10
138.8811007682311
 20
43.19977483729033
 30
0.0
 10
139.6064656226505
 20
41.83655055377697
 30
0.0
 10
140.0934298694905
 20
40.92084417379757
 30
0.0
 10
138.9517252256787
 20
40.43611923902291
 30
0.0
 10
138.2547824090127
 20
40.37996418261334
 30
0.0
 10
136.5877007037003
 20
40.24457193004302
 30
0.0
 10
135.1212958104037
 20
41.42313909554699
 30
0.0
 10
134.515820278871
 20
42.84148490682436
 30
0.0
 10
131.8007405269456
 20
48.75843640274095
 30
0.0
 10
134.8367309233221
 20
56.52402613604261
 30
0.0
 10
135.9470851982181
 20
58.232448987178
 30
0.0
 10
121.353143958377
 20
52.98591307269103
 30
0.0
 10
105.5551418464411
 20
56.34935979494044
 30
0.0
 10
105.5547973368926
 20
61.93110350014223
 30
0.0
 10
105.4247449823244
 20
63.40870495376588
 30
0.0
 10
107.3646782500686
 20
65.5036675183463
 30
0.0
 10
109.2002251246097
 20
64.53180608195733
 30
0.0
 10
110.8345784228122
 20
63.66708711515962
 30
0.0
 10
110.6742092279738
 20
61.01849770609955
 30
0.0
 10
108.9428764918615
 20
60.59475096141382
 30
0.0
 10
108.3883883735106
 20
60.45901419929497
 30
0.0
 10
107.7267577855683
 20
60.3504936915096
 30
0.0
 10
107.3646782500686
 20
60.92616914709485
 30
0.0
  0
ENDBLK
  5
A9
330
A6
100
AcDbEntity
  8
0
100
AcDbBlockEnd
  0
BLOCK
  5
B0
330
AE
100
AcDbEntity
  8
0
100
AcDbBlockBegin
  2
block 20
 70
     0
 71
     0
 10
0.0
 20
0.0
 30
0.0
  3
block 20
  1

  0
INSERT
  5
B3
330
AE
100
AcDbEntity
  8
Layer 2
100
AcDbBlockReference
  2
block 21
 10
0.0
 20
0.0
 30
0.0
  0
INSERT
  5
BB
330
AE
100
AcDbEntity
  8
Layer 2
100
AcDbBlockReference
  2
block 22
 10
0.0
 20
0.0
 30
0.0
  0
ENDBLK
  5
B1
330
AE
100
AcDbEntity
  8
0
100
AcDbBlockEnd
  0
BLOCK
  5
B4
330
B2
100
AcDbEntity
  8
0
100
AcDbBlockBegin
  2
block 21
 70
     0
 71
     0
 10
0.0
 20
0.0
 30
0.0
  3
block 21
  1

  0
SPLINE
  5
B6
330
B2
100
AcDbEntity
  8
Layer 2
 62
     7
420
 16777215
370
   140
100
AcDbSpline
210
0.0
220
0.0
230
1.0
 70
     8
 71
     3
 72
    41
 73
    37
 74
     0
 42
0.0000000001
 43
0.0000000001
 40
0.0
 40
0.0
 40
0.0
 40
0.0
 40
1.0
 40
1.0
 40
1.0
 40
2.0
 40
2.0
 40
2.0
 40
3.0
 40
3.0
 40
3.0
 40
4.0
 40
4.0
 40
4.0
 40
5.0
 40
5.0
 40
5.0
 40
6.0
 40
6.0
 40
6.0
 40
7.0
 40
7.0
 40
7.0
 40
8.0
 40
8.0
 40
8.0
 40
9.0
 40
9.0
 40
9.0
 40
10.0
 40
10.0
 40
10.0
 40
11.0
 40
11.0
 40
11.0
 40
12.0
 40
12.0
 40
12.0
 40
12.0
 10
69.81916637794451
 20
35.597138120441
 30
0.0
 10
69.64777287755334
 20
35.57026637565605
 30
0.0
 10
69.44502900824638
 20
35.59265949631017
 30
0.0
 10
69.27794187721177
 20
35.61401908831872
 30
0.0
 10
69.00939668413655
 20
36.86148816352768
 30
0.0
 10
70.79981280782089
 20
36.88835990831264
 30
0.0
 10
71.05251056166396
 20
35.71013725235719
 30
0.0
 10
71.28505450691833
 20
34.62768825089169
 30
0.0
 10
70.19761011699921
 20
34.05752494808284
 30
0.0
 10
69.34787731556234
 20
34.32417533864118
 30
0.0
 10
67.39054631561764
 20
34.94119194004943
 30
0.0
 10
67.95536972042436
 20
37.87916936987049
 30
0.0
 10
69.81916637794451
 20
38.20300834548397
 30
0.0
 10
74.10917153095188
 20
38.94818249894351
 30
0.0
 10
76.08269447967724
 20
33.71542696639754
 30
0.0
 10
76.62874211408935
 20
30.50425346459616
 30
0.0
 10
77.85691865458091
 20
24.61934135669239
 30
0.0
 10
73.63529864695576
 20
20.24200303313394
 30
0.0
 10
72.53734671580663
 20
18.9755859327561
 30
0.0
 10
81.98724363184694
 20
24.73234048860858
 30
0.0
 10
95.56884356334737
 20
22.34764539371865
 30
0.0
 10
99.51416691305549
 20
20.77116969966832
 30
0.0
 10
102.2767889826773
 20
19.6677056157428
 30
0.0
 10
106.1003282069819
 20
14.88591308221602
 30
0.0
 10
102.3102064088843
 20
11.71435817849502
 30
0.0
 10
100.8021158602161
 20
10.45173068315096
 30
0.0
 10
98.3972669567375
 20
10.99605576982043
 30
0.0
 10
97.30947805726986
 20
12.42129177206829
 30
0.0
 10
96.09249807710535
 20
14.01533745309339
 30
0.0
 10
96.8881428794238
 20
16.80930989163101
 30
0.0
 10
98.84426809594866
 20
17.35087890191228
 30
0.0
 10
100.5535522209554
 20
17.82285698339151
 30
0.0
 10
101.9000677913653
 20
15.74615342488291
 30
0.0
 10
100.8811808016026
 20
14.31781683669832
 30
0.0
 10
99.20410831938301
 20
11.96550563936974
 30
0.0
 10
97.62470429417021
 20
15.79645181896755
 30
0.0
 10
99.62561575200333
 20
15.45194227044257
 30
0.0
  0
SPLINE
  5
B7
330
B2
100
AcDbEntity
  8
Layer 2
  6
AI-Linetype-9
 62
     7
420
 16777215
370
    35
100
AcDbSpline
210
0.0
220
0.0
230
1.0
 70
     8
 71
     3
 72
    11
 73
     7
 74
     0
 42
0.0000000001
 43
0.0000000001
 40
0.0
 40
0.0
 40
0.0
 40
0.0
 40
1.0
 40
1.0
 40
1.0
 40
2.0
 40
2.0
 40
2.0
 40
2.0
 10
72.16355385565703
 20
38.65328232540612
 30
0.0
 10
72.16355385565703
 20
38.65328232540612
 30
0.0
 10
82.43372800673532
 20
36.16351181821607
 30
0.0
 10
76.29387883292306
 20
22.24291449096705
 30
0.0
 10
76.29387883292306
 20
22.24291449096705
 30
0.0
 10
98.062920439894
 20
28.58051214563265
 30
0.0
 10
103.86790633254
 20
17.60271538188404
 30
0.0
  0
SPLINE
  5
B9
330
B2
100
AcDbEntity
  8
Layer 2
 62
     7
420
 16777215
370
    35
100
AcDbSpline
210
0.0
220
0.0
230
1.0
 70
     8
 71
     3
 72
    32
 73
    28
 74
     0
 42
0.0000000001
 43
0.0000000001
 40
0.0
 40
0.0
 40
0.0
 40
0.0
 40
1.0
 40
1.0
 40
1.0
 40
2.0
 40
2.0
 40
2.0
 40
3.0
 40
3.0
 40
3.0
 40
4.0
 40
4.0
 40
4.0
 40
5.0
 40
5.0
 40
5.0
 40
6.0
 40
6.0
 40
6.0
 40
7.0
 40
7.0
 40
7.0
 40
8.0
 40
8.0
 40
8.0
 40
9.0
 40
9.0
 40
9.0
 40
9.0
 10
69.26088865455978
 20
35.4841389885248
 30
0.0
 10
69.27863089630881
 20
35.59644910134394
 30
0.0
 10
69.2488308203614
 20
35.69325628447947
 30
0.0
 10
69.27794187721177
 20
35.80659992594418
 30
0.0
 10
70.68164603267681
 20
36.22690157514467
 30
0.0
 10
69.6419162152284
 20
34.21565483085581
 30
0.0
 10
68.92636988294203
 20
35.597138120441
 30
0.0
 10
68.44560680797541
 20
36.52593586326435
 30
0.0
 10
69.57232528642636
 20
37.01720647946098
 30
0.0
 10
70.2601386000565
 20
37.0740505549676
 30
0.0
 10
71.90517169426329
 20
37.21219888392612
 30
0.0
 10
73.35245630761675
 20
36.0164062409959
 30
0.0
 10
73.94966360998481
 20
34.57876789500114
 30
0.0
 10
76.62874211408935
 20
28.58051214563265
 30
0.0
 10
73.63305933489035
 20
20.70709092364267
 30
0.0
 10
72.53734671580663
 20
18.9755859327561
 30
0.0
 10
86.93819035369948
 20
24.29481336198185
 30
0.0
 10
102.5275919340035
 20
20.88416883158451
 30
0.0
 10
102.5279364435521
 20
15.22559949706166
 30
0.0
 10
102.6564385051519
 20
13.72836099917208
 30
0.0
 10
100.7418266892243
 20
11.60445963251555
 30
0.0
 10
98.93108450217696
 20
12.58872341265143
 30
0.0
 10
97.31826305075724
 20
13.46584472319604
 30
0.0
 10
97.47622067875595
 20
16.15095214439976
 30
0.0
 10
99.1848157846656
 20
16.58021104186189
 30
0.0
 10
99.73189694772329
 20
16.71835937082041
 30
0.0
 10
100.3847425421781
 20
16.82825791679988
 30
0.0
 10
100.7418266892243
 20
16.24396972250151
 30
0.0
  0
ENDBLK
  5
B5
330
B2
100
AcDbEntity
  8
0
100
AcDbBlockEnd
  0
BLOCK
  5
BC
330
BA
100
AcDbEntity
  8
0
100
AcDbBlockBegin
  2
block 22
 70
     0
 71
     0
 10
0.0
 20
0.0
 30
0.0
  3
block 22
  1

  0
SPLINE
  5
BE
330
BA
100
AcDbEntity
  8
Layer 2
 62
     7
420
 16777215
370
   140
100
AcDbSpline
210
0.0
220
0.0
230
1.0
 70
     8
 71
     3
 72
    41
 73
    37
 74
     0
 42
0.0000000001
 43
0.0000000001
 40
0.0
 40
0.0
 40
0.0
 40
0.0
 40
1.0
 40
1.0
 40
1.0
 40
2.0
 40
2.0
 40
2.0
 40
3.0
 40
3.0
 40
3.0
 40
4.0
 40
4.0
 40
4.0
 40
5.0
 40
5.0
 40
5.0
 40
6.0
 40
6.0
 40
6.0
 40
7.0
 40
7.0
 40
7.0
 40
8.0
 40
8.0
 40
8.0
 40
9.0
 40
9.0
 40
9.0
 40
10.0
 40
10.0
 40
10.0
 40
11.0
 40
11.0
 40
11.0
 40
12.0
 40
12.0
 40
12.0
 40
12.0
 10
138.7014390386753
 20
35.597138120441
 30
0.0
 10
138.8752441059062
 20
35.57026637565605
 30
0.0
 10
139.0805717968271
 20
35.59265949631017
 30
0.0
 10
139.2500704947014
 20
35.61401908831872
 30
0.0
 10
139.5220607832618
 20
36.86148816352768
 30
0.0
 10
137.7078735007293
 20
36.88835990831264
 30
0.0
 10
137.4519029061752
 20
35.71013725235719
 30
0.0
 10
137.2160861202099
 20
34.62768825089169
 30
0.0
 10
138.3181721659413
 20
34.05752494808284
 30
0.0
 10
139.1792737824795
 20
34.32417533864118
 30
0.0
 10
141.1629597628863
 20
34.94119194004943
 30
0.0
 10
140.5902126384636
 20
37.87916936987049
 30
0.0
 10
138.7014390386753
 20
38.20300834548397
 30
0.0
 10
134.3542453006128
 20
38.94818249894351
 30
0.0
 10
132.3543673714253
 20
33.71542696639754
 30
0.0
 10
131.8007405269456
 20
30.50425346459616
 30
0.0
 10
130.5561997828991
 20
24.61934135669239
 30
0.0
 10
134.8344916112567
 20
20.24200303313394
 30
0.0
 10
135.9470851982181
 20
18.9755859327561
 30
0.0
 10
126.3705810230949
 20
24.73234048860858
 30
0.0
 10
112.6070800499732
 20
22.34764539371865
 30
0.0
 10
108.6092189941151
 20
20.77116969966832
 30
0.0
 10
105.8095621480268
 20
19.6677056157428
 30
0.0
 10
101.934691000992
 20
14.88591308221602
 30
0.0
 10
105.7756279574971
 20
11.71435817849502
 30
0.0
 10
107.3038723147539
 20
10.45173068315096
 30
0.0
 10
109.7407606062454
 20
10.99605576982043
 30
0.0
 10
110.8433634162996
 20
12.42129177206829
 30
0.0
 10
112.076707600019
 20
14.01533745309339
 30
0.0
 10
111.2700384921478
 20
16.80930989163101
 30
0.0
 10
109.2879028047093
 20
17.35087890191228
 30
0.0
 10
107.5557087947257
 20
17.82285698339151
 30
0.0
 10
106.1912787277925
 20
15.74615342488291
 30
0.0
 10
107.2237738447218
 20
14.31781683669832
 30
0.0
 10
108.9232394475956
 20
11.96550563936974
 30
0.0
 10
110.5238308100427
 20
15.79645181896755
 30
0.0
 10
108.4960476074246
 20
15.45194227044257
 30
0.0
  0
SPLINE
  5
BF
330
BA
100
AcDbEntity
  8
Layer 2
  6
AI-Linetype-10
 62
     7
420
 16777215
370
    35
100
AcDbSpline
210
0.0
220
0.0
230
1.0
 70
     8
 71
     3
 72
    11
 73
     7
 74
     0
 42
0.0000000001
 43
0.0000000001
 40
0.0
 40
0.0
 40
0.0
 40
0.0
 40
1.0
 40
1.0
 40
1.0
 40
2.0
 40
2.0
 40
2.0
 40
2.0
 10
136.3258734468213
 20
38.65328232540612
 30
0.0
 10
136.3258734468213
 20
38.65328232540612
 30
0.0
 10
125.9182399858816
 20
36.16351181821607
 30
0.0
 10
132.1400824322428
 20
22.24291449096705
 30
0.0
 10
132.1400824322428
 20
22.24291449096705
 30
0.0
 10
110.0795857472197
 20
28.58051214563265
 30
0.0
 10
104.1969129513813
 20
17.60271538188404
 30
0.0
  0
SPLINE
  5
C1
330
BA
100
AcDbEntity
  8
Layer 2
 62
     7
420
 16777215
370
    35
100
AcDbSpline
210
0.0
220
0.0
230
1.0
 70
     8
 71
     3
 72
    32
 73
    28
 74
     0
 42
0.0000000001
 43
0.0000000001
 40
0.0
 40
0.0
 40
0.0
 40
0.0
 40
1.0
 40
1.0
 40
1.0
 40
2.0
 40
2.0
 40
2.0
 40
3.0
 40
3.0
 40
3.0
 40
4.0
 40
4.0
 40
4.0
 40
5.0
 40
5.0
 40
5.0
 40
6.0
 40
6.0
 40
6.0
 40
7.0
 40
7.0
 40
7.0
 40
8.0
 40
8.0
 40
8.0
 40
9.0
 40
9.0
 40
9.0
 40
9.0
 10
139.2672959721276
 20
35.4841389885248
 30
0.0
 10
139.2493814756043
 20
35.59644910134394
 30
0.0
 10
139.2796983158745
 20
35.69325628447947
 30
0.0
 10
139.2500704947014
 20
35.80659992594418
 30
0.0
 10
137.8275905688417
 20
36.22690157514467
 30
0.0
 10
138.8811007682311
 20
34.21565483085581
 30
0.0
 10
139.6064656226505
 20
35.597138120441
 30
0.0
 10
140.0934298694905
 20
36.52593586326435
 30
0.0
 10
138.9517252256787
 20
37.01720647946098
 30
0.0
 10
138.2547824090127
 20
37.0740505549676
 30
0.0
 10
136.5877007037003
 20
37.21219888392612
 30
0.0
 10
135.1212958104037
 20
36.0164062409959
 30
0.0
 10
134.515820278871
 20
34.57876789500114
 30
0.0
 10
131.8007405269456
 20
28.58051214563265
 30
0.0
 10
134.8367309233221
 20
20.70709092364267
 30
0.0
 10
135.9470851982181
 20
18.9755859327561
 30
0.0
 10
121.353143958377
 20
24.29481336198185
 30
0.0
 10
105.5551418464411
 20
20.88416883158451
 30
0.0
 10
105.5547973368926
 20
15.22559949706166
 30
0.0
 10
105.4247449823244
 20
13.72836099917208
 30
0.0
 10
107.3646782500686
 20
11.60445963251555
 30
0.0
 10
109.2002251246097
 20
12.58872341265143
 30
0.0
 10
110.8345784228122
 20
13.46584472319604
 30
0.0
 10
110.6742092279738
 20
16.15095214439976
 30
0.0
 10
108.9428764918615
 20
16.58021104186189
 30
0.0
 10
108.3883883735106
 20
16.71835937082041
 30
0.0
 10
107.7267577855683
 20
16.82825791679988
 30
0.0
 10
107.3646782500686
 20
16.24396972250151
 30
0.0
  0
ENDBLK
  5
BD
330
BA
100
AcDbEntity
  8
0
100
AcDbBlockEnd
  0
BLOCK
  5
C4
330
C2
100
AcDbEntity
  8
0
100
AcDbBlockBegin
  2
block 23
 70
     0
 71
     0
 10
0.0
 20
0.0
 30
0.0
  3
block 23
  1

  0
INSERT
  5
C7
330
C2
100
AcDbEntity
  8
Layer 2
100
AcDbBlockReference
  2
block 24
 10
0.0
 20
0.0
 30
0.0
  0
INSERT
  5
DB
330
C2
100
AcDbEntity
  8
Layer 2
100
AcDbBlockReference
  2
block 27
 10
0.0
 20
0.0
 30
0.0
  0
ENDBLK
  5
C5
330
C2
100
AcDbEntity
  8
0
100
AcDbBlockEnd
  0
BLOCK
  5
C8
330
C6
100
AcDbEntity
  8
0
100
AcDbBlockBegin
  2
block 24
 70
     0
 71
     0
 10
0.0
 20
0.0
 30
0.0
  3
block 24
  1

  0
INSERT
  5
CB
330
C6
100
AcDbEntity
  8
Layer 2
100
AcDbBlockReference
  2
block 25
 10
0.0
 20
0.0
 30
0.0
  0
INSERT
  5
D3
330
C6
100
AcDbEntity
  8
Layer 2
100
AcDbBlockReference
  2
block 26
 10
0.0
 20
0.0
 30
0.0
  0
ENDBLK
  5
C9
330
C6
100
AcDbEntity
  8
0
100
AcDbBlockEnd
  0
BLOCK
  5
CC
330
CA
100
AcDbEntity
  8
0
100
AcDbBlockBegin
  2
block 25
 70
     0
 71
     0
 10
0.0
 20
0.0
 30
0.0
  3
block 25
  1

  0
SPLINE
  5
CE
330
CA
100
AcDbEntity
  8
Layer 2
 62
     7
420
 16777215
370
   140
100
AcDbSpline
210
0.0
220
0.0
230
1.0
 70
     8
 71
     3
 72
    32
 73
    28
 74
     0
 42
0.0000000001
 43
0.0000000001
 40
0.0
 40
0.0
 40
0.0
 40
0.0
 40
1.0
 40
1.0
 40
1.0
 40
2.0
 40
2.0
 40
2.0
 40
3.0
 40
3.0
 40
3.0
 40
4.0
 40
4.0
 40
4.0
 40
5.0
 40
5.0
 40
5.0
 40
6.0
 40
6.0
 40
6.0
 40
7.0
 40
7.0
 40
7.0
 40
8.0
 40
8.0
 40
8.0
 40
9.0
 40
9.0
 40
9.0
 40
9.0
 10
186.962920417669
 20
195.5990857800933
 30
0.0
 10
186.9029757562257
 20
196.3151488767025
 30
0.0
 10
187.6391926614236
 20
196.3697536401437
 30
0.0
 10
188.1711154043461
 20
196.1380709687606
 30
0.0
 10
188.7953667062734
 20
193.58887256445
 30
0.0
 10
185.170092727145
 20
193.9454399471734
 30
0.0
 10
185.729231724401
 20
195.9399779783588
 30
0.0
 10
186.2773464161043
 20
197.8957586853351
 30
0.0
 10
188.8401529475816
 20
197.8147989414317
 30
0.0
 10
189.7816975437004
 20
196.4085109643527
 30
0.0
 10
192.2959282288357
 20
192.6521511020106
 30
0.0
 10
187.9409830259314
 20
188.3841945601088
 30
0.0
 10
184.6185329399565
 20
187.5615057582312
 30
0.0
 10
181.2878146248169
 20
186.7369221538366
 30
0.0
 10
175.5761908198212
 20
185.6637749101813
 30
0.0
 10
167.6500596369069
 20
189.124545579889
 30
0.0
 10
166.1094129359032
 20
189.9141614651083
 30
0.0
 10
163.6354898679453
 20
190.9700832313374
 30
0.0
 10
161.845073744261
 20
190.6872408919983
 30
0.0
 10
157.6027831637243
 20
190.0175143296658
 30
0.0
 10
157.7805500907632
 20
185.8327568437328
 30
0.0
 10
158.4960964230496
 20
182.6496608701362
 30
0.0
 10
159.3308430591256
 20
178.9360201918111
 30
0.0
 10
159.8176350511914
 20
176.187006249356
 30
0.0
 10
156.5981933202254
 20
173.7189398437231
 30
0.0
 10
155.1791584898511
 20
172.6308064347069
 30
0.0
 10
153.2802218583813
 20
171.9743434899925
 30
0.0
 10
151.4632784994606
 20
171.932657834621
 30
0.0
  0
SPLINE
  5
CF
330
CA
100
AcDbEntity
  8
Layer 2
 62
     7
420
 16777215
370
    35
100
AcDbSpline
210
0.0
220
0.0
230
1.0
 70
     8
 71
     3
 72
    35
 73
    31
 74
     0
 42
0.0000000001
 43
0.0000000001
 40
0.0
 40
0.0
 40
0.0
 40
0.0
 40
1.0
 40
1.0
 40
1.0
 40
2.0
 40
2.0
 40
2.0
 40
3.0
 40
3.0
 40
3.0
 40
4.0
 40
4.0
 40
4.0
 40
5.0
 40
5.0
 40
5.0
 40
6.0
 40
6.0
 40
6.0
 40
7.0
 40
7.0
 40
7.0
 40
8.0
 40
8.0
 40
8.0
 40
9.0
 40
9.0
 40
9.0
 40
10.0
 40
10.0
 40
10.0
 40
10.0
 10
187.0745415113911
 20
195.7108791285897
 30
0.0
 10
187.2171684644804
 20
195.7959729870753
 30
0.0
 10
187.3684081562829
 20
195.8860622340146
 30
0.0
 10
187.6157660121239
 20
195.8057915092083
 30
0.0
 10
187.9523518410328
 20
194.69130311973
 30
0.0
 10
186.3248887338007
 20
194.6544405980378
 30
0.0
 10
186.4020588726703
 20
195.8250840439257
 30
0.0
 10
186.4454670757845
 20
196.4820637529628
 30
0.0
 10
187.4304198750174
 20
197.188308327439
 30
0.0
 10
188.0849880172149
 20
196.9442233123091
 30
0.0
 10
189.6218451131848
 20
196.3702704044665
 30
0.0
 10
189.7496581556876
 20
193.661736333963
 30
0.0
 10
189.0561604345068
 20
192.5882445807592
 30
0.0
 10
187.0473252570576
 20
189.4781846314499
 30
0.0
 10
182.8002115428416
 20
188.1203002459387
 30
0.0
 10
179.3713080063725
 20
188.1197834816159
 30
0.0
 10
175.9427489794518
 20
188.1192667172931
 30
0.0
 10
174.5240586586259
 20
188.6437825049224
 30
0.0
 10
170.5528970927784
 20
189.6826510484995
 30
0.0
 10
167.1877278227864
 20
190.5627006902066
 30
0.0
 10
162.6205647379907
 20
193.4605427576245
 30
0.0
 10
159.1658229853822
 20
191.5803818965494
 30
0.0
 10
155.8254584028839
 20
189.762405008983
 30
0.0
 10
156.2188883072995
 20
185.3440700491501
 30
0.0
 10
157.2899684936636
 20
182.202659730925
 30
0.0
 10
158.4888617225306
 20
178.6855617500335
 30
0.0
 10
158.7462103552787
 20
175.1968858068952
 30
0.0
 10
155.0351534985676
 20
173.1606621203383
 30
0.0
 10
153.9068847271483
 20
172.5414062068647
 30
0.0
 10
152.7613904783027
 20
172.3483086049164
 30
0.0
 10
151.4632784994606
 20
172.2675211157873
 30
0.0
  0
SPLINE
  5
D0
330
CA
100
AcDbEntity
  8
Layer 2
  6
AI-Linetype-11
 62
     7
420
 16777215
370
    35
100
AcDbSpline
210
0.0
220
0.0
230
1.0
 70
     8
 71
     3
 72
    26
 73
    22
 74
     0
 42
0.0000000001
 43
0.0000000001
 40
0.0
 40
0.0
 40
0.0
 40
0.0
 40
1.0
 40
1.0
 40
1.0
 40
2.0
 40
2.0
 40
2.0
 40
3.0
 40
3.0
 40
3.0
 40
4.0
 40
4.0
 40
4.0
 40
5.0
 40
5.0
 40
5.0
 40
6.0
 40
6.0
 40
6.0
 40
7.0
 40
7.0
 40
7.0
 40
7.0
 10
190.9819688107615
 20
193.4782849993735
 30
0.0
 10
191.2827256466238
 20
184.8083577011938
 30
0.0
 10
180.2139783620646
 20
184.8548664902446
 30
0.0
 10
174.0128064886149
 20
185.7779798255173
 30
0.0
 10
172.0473795142798
 20
186.0708129417636
 30
0.0
 10
170.59458274815
 20
186.4881862598016
 30
0.0
 10
168.7666150836764
 20
187.3134588832932
 30
0.0
 10
167.3306992854243
 20
187.9618258536172
 30
0.0
 10
165.7580131964077
 20
188.6939086442328
 30
0.0
 10
164.1894612219735
 20
188.9879475438989
 30
0.0
 10
162.210598375246
 20
189.3589843276603
 30
0.0
 10
160.8432399771503
 20
188.9755452001519
 30
0.0
 10
159.9196098775548
 20
187.1150213833428
 30
0.0
 10
158.8953829897901
 20
185.0522704615495
 30
0.0
 10
159.6429687100893
 20
184.0664563884452
 30
0.0
 10
160.1459526509358
 20
182.0912108919772
 30
0.0
 10
160.7994872644876
 20
179.5237534815948
 30
0.0
 10
160.419148722916
 20
176.5738904723496
 30
0.0
 10
159.0542018916601
 20
174.3886664060556
 30
0.0
 10
157.8649549301518
 20
172.4852511504551
 30
0.0
 10
154.9235324048455
 20
171.1511379237921
 30
0.0
 10
152.0210394585225
 20
171.5977945534547
 30
0.0
  0
ENDBLK
  5
CD
330
CA
100
AcDbEntity
  8
0
100
AcDbBlockEnd
  0
BLOCK
  5
D4
330
D2
100
AcDbEntity
  8
0
100
AcDbBlockBegin
  2
block 26
 70
     0
 71
     0
 10
0.0
 20
0.0
 30
0.0
  3
block 26
  1

  0
SPLINE
  5
D6
330
D2
100
AcDbEntity
  8
Layer 2
 62
     7
420
 16777215
370
   140
100
AcDbSpline
210
0.0
220
0.0
230
1.0
 70
     8
 71
     3
 72
    32
 73
    28
 74
     0
 42
0.0000000001
 43
0.0000000001
 40
0.0
 40
0.0
 40
0.0
 40
0.0
 40
1.0
 40
1.0
 40
1.0
 40
2.0
 40
2.0
 40
2.0
 40
3.0
 40
3.0
 40
3.0
 40
4.0
 40
4.0
 40
4.0
 40
5.0
 40
5.0
 40
5.0
 40
6.0
 40
6.0
 40
6.0
 40
7.0
 40
7.0
 40
7.0
 40
8.0
 40
8.0
 40
8.0
 40
9.0
 40
9.0
 40
9.0
 40
9.0
 10
194.512158154497
 20
195.5990857800933
 30
0.0
 10
194.5724473254888
 20
196.3149766219282
 30
0.0
 10
193.8258951338352
 20
196.3695813853694
 30
0.0
 10
193.2870821999421
 20
196.1378987139864
 30
0.0
 10
192.6542181593017
 20
193.5887003096757
 30
0.0
 10
196.3291015134177
 20
193.9452676923991
 30
0.0
 10
195.7627278156426
 20
195.9398057235845
 30
0.0
 10
195.2066894043233
 20
197.8955864305608
 30
0.0
 10
192.6087428988964
 20
197.8146266866575
 30
0.0
 10
191.6544514494822
 20
196.4083387095785
 30
0.0
 10
189.1057698094944
 20
192.6519788472363
 30
0.0
 10
193.5203151642935
 20
188.3840223053346
 30
0.0
 10
196.8885850202223
 20
187.5613335034569
 30
0.0
 10
200.2651231053157
 20
186.7367498990623
 30
0.0
 10
206.0556395969236
 20
185.663602655407
 30
0.0
 10
214.0906357971718
 20
189.1243733251148
 30
0.0
 10
215.6522975806355
 20
189.913989210334
 30
0.0
 10
218.1603270938974
 20
190.9699109765631
 30
0.0
 10
219.9755479050756
 20
190.6870686372241
 30
0.0
 10
224.2760605993129
 20
190.0173420748915
 30
0.0
 10
224.0958821054344
 20
185.8325845889585
 30
0.0
 10
223.3703449962408
 20
182.6494886153619
 30
0.0
 10
222.5238850355149
 20
178.9358479370369
 30
0.0
 10
222.0308918715756
 20
176.1868339945818
 30
0.0
 10
225.2944308247528
 20
173.7187675889488
 30
0.0
 10
226.7331026993931
 20
172.6306341799326
 30
0.0
 10
228.6578775470022
 20
171.9741712352183
 30
0.0
 10
230.5003146125138
 20
171.9324855798467
 30
0.0
  0
SPLINE
  5
D7
330
D2
100
AcDbEntity
  8
Layer 2
 62
     7
420
 16777215
370
    35
100
AcDbSpline
210
0.0
220
0.0
230
1.0
 70
     8
 71
     3
 72
    35
 73
    31
 74
     0
 42
0.0000000001
 43
0.0000000001
 40
0.0
 40
0.0
 40
0.0
 40
0.0
 40
1.0
 40
1.0
 40
1.0
 40
2.0
 40
2.0
 40
2.0
 40
3.0
 40
3.0
 40
3.0
 40
4.0
 40
4.0
 40
4.0
 40
5.0
 40
5.0
 40
5.0
 40
6.0
 40
6.0
 40
6.0
 40
7.0
 40
7.0
 40
7.0
 40
8.0
 40
8.0
 40
8.0
 40
9.0
 40
9.0
 40
9.0
 40
10.0
 40
10.0
 40
10.0
 40
10.0
 10
194.3988145130322
 20
195.7107068738154
 30
0.0
 10
194.2544650122003
 20
195.795800732301
 30
0.0
 10
194.1008137535581
 20
195.8858899792403
 30
0.0
 10
193.850010802232
 20
195.805619254434
 30
0.0
 10
193.5086018396437
 20
194.6911308649557
 30
0.0
 10
195.1588025770784
 20
194.6542683432635
 30
0.0
 10
195.0805989095632
 20
195.8250840439257
 30
0.0
 10
195.0368461969005
 20
196.4818914981886
 30
0.0
 10
194.0377685061781
 20
197.1881360726648
 30
0.0
 10
193.3745876252675
 20
196.9440510575348
 30
0.0
 10
191.8160264277404
 20
196.3700981496922
 30
0.0
 10
191.6871798565921
 20
193.6615640791888
 30
0.0
 10
192.3896348260346
 20
192.5880723259849
 30
0.0
 10
194.4263752769143
 20
189.4780123766757
 30
0.0
 10
198.731711104831
 20
188.1201279911644
 30
0.0
 10
202.2078124494481
 20
188.1196112268416
 30
0.0
 10
205.6839137940651
 20
188.1190944625189
 30
0.0
 10
207.1215521400599
 20
188.6437825049224
 30
0.0
 10
211.1485242527684
 20
189.6824787937252
 30
0.0
 10
214.5595132927143
 20
190.5625284354323
 30
0.0
 10
219.1893771153416
 20
193.4603705028502
 30
0.0
 10
222.691316676098
 20
191.5802096417751
 30
0.0
 10
226.0778455380986
 20
189.7622327542088
 30
0.0
 10
225.6792479904552
 20
185.3438977943758
 30
0.0
 10
224.5933538935045
 20
182.2024874761508
 30
0.0
 10
223.3775796967598
 20
178.6853894952592
 30
0.0
 10
223.1171304780749
 20
175.196713552121
 30
0.0
 10
226.8791747479677
 20
173.160489865564
 30
0.0
 10
228.0226019395221
 20
172.5414062068647
 30
0.0
 10
229.1839436275999
 20
172.3481363501421
 30
0.0
 10
230.5003146125138
 20
172.267348861013
 30
0.0
  0
SPLINE
  5
D8
330
D2
100
AcDbEntity
  8
Layer 2
  6
AI-Linetype-12
 62
     7
420
 16777215
370
    35
100
AcDbSpline
210
0.0
220
0.0
230
1.0
 70
     8
 71
     3
 72
    26
 73
    22
 74
     0
 42
0.0000000001
 43
0.0000000001
 40
0.0
 40
0.0
 40
0.0
 40
0.0
 40
1.0
 40
1.0
 40
1.0
 40
2.0
 40
2.0
 40
2.0
 40
3.0
 40
3.0
 40
3.0
 40
4.0
 40
4.0
 40
4.0
 40
5.0
 40
5.0
 40
5.0
 40
6.0
 40
6.0
 40
6.0
 40
7.0
 40
7.0
 40
7.0
 40
7.0
 10
190.437643724092
 20
193.4781127445992
 30
0.0
 10
190.1324082640988
 20
184.8081854464195
 30
0.0
 10
201.3534287691061
 20
184.8545219806961
 30
0.0
 10
207.6396945010415
 20
185.7778075707431
 30
0.0
 10
209.6326822392585
 20
186.0706406869893
 30
0.0
 10
211.1051160496543
 20
186.4880140050273
 30
0.0
 10
212.9585774207187
 20
187.3132866285189
 30
0.0
 10
214.4144747727853
 20
187.9616535988429
 30
0.0
 10
216.0085204538104
 20
188.6937363894585
 30
0.0
 10
217.5987765298017
 20
188.9877752891246
 30
0.0
 10
219.6048556308627
 20
189.358812072886
 30
0.0
 10
220.9915065636758
 20
188.9753729453777
 30
0.0
 10
221.9275390070181
 20
187.1148491285685
 30
0.0
 10
222.9655462767239
 20
185.0520982067752
 30
0.0
 10
222.2079697795175
 20
184.0662841336709
 30
0.0
 10
221.6980956477005
 20
182.091038637203
 30
0.0
 10
221.0352592763384
 20
179.5235812268205
 30
0.0
 10
221.4207654611379
 20
176.5737182175753
 30
0.0
 10
222.8046603175627
 20
174.3884941512813
 30
0.0
 10
224.0100992278516
 20
172.4850788956808
 30
0.0
 10
226.9921738798839
 20
171.1509656690178
 30
0.0
 10
229.9342854242873
 20
171.5976222986805
 30
0.0
  0
ENDBLK
  5
D5
330
D2
100
AcDbEntity
  8
0
100
AcDbBlockEnd
  0
BLOCK
  5
DC
330
DA
100
AcDbEntity
  8
0
100
AcDbBlockBegin
  2
block 27
 70
     0
 71
     0
 10
0.0
 20
0.0
 30
0.0
  3
block 27
  1

  0
INSERT
  5
DF
330
DA
100
AcDbEntity
  8
Layer 2
100
AcDbBlockReference
  2
block 28
 10
0.0
 20
0.0
 30
0.0
  0
INSERT
  5
E7
330
DA
100
AcDbEntity
  8
Layer 2
100
AcDbBlockReference
  2
block 29
 10
0.0
 20
0.0
 30
0.0
  0
ENDBLK
  5
DD
330
DA
100
AcDbEntity
  8
0
100
AcDbBlockEnd
  0
BLOCK
  5
E0
330
DE
100
AcDbEntity
  8
0
100
AcDbBlockBegin
  2
block 28
 70
     0
 71
     0
 10
0.0
 20
0.0
 30
0.0
  3
block 28
  1

  0
SPLINE
  5
E2
330
DE
100
AcDbEntity
  8
Layer 2
 62
     7
420
 16777215
370
   140
100
AcDbSpline
210
0.0
220
0.0
230
1.0
 70
     8
 71
     3
 72
    32
 73
    28
 74
     0
 42
0.0000000001
 43
0.0000000001
 40
0.0
 40
0.0
 40
0.0
 40
0.0
 40
1.0
 40
1.0
 40
1.0
 40
2.0
 40
2.0
 40
2.0
 40
3.0
 40
3.0
 40
3.0
 40
4.0
 40
4.0
 40
4.0
 40
5.0
 40
5.0
 40
5.0
 40
6.0
 40
6.0
 40
6.0
 40
7.0
 40
7.0
 40
7.0
 40
8.0
 40
8.0
 40
8.0
 40
9.0
 40
9.0
 40
9.0
 40
9.0
 10
186.8905734124787
 20
146.6909599785182
 30
0.0
 10
186.8285616937443
 20
145.9652506145504
 30
0.0
 10
187.5647785989422
 20
145.9073730103982
 30
0.0
 10
188.0973903609618
 20
146.1407782295238
 30
0.0
 10
188.7295653825051
 20
148.7249443530097
 30
0.0
 10
185.1025688556341
 20
148.3742336326113
 30
0.0
 10
185.6561957001137
 20
146.3492065063814
 30
0.0
 10
186.1984537294921
 20
144.3632812139092
 30
0.0
 10
188.7612602609694
 20
144.4378675311648
 30
0.0
 10
189.7069389716705
 20
145.8615532404444
 30
0.0
 10
192.2325384719072
 20
149.6647664013859
 30
0.0
 10
187.8910291413953
 20
154.0078260248661
 30
0.0
 10
184.57099062226
 20
154.8525634378494
 30
0.0
 10
181.2430283835087
 20
155.6990233985753
 30
0.0
 10
175.5345051644497
 20
156.8054158136632
 30
0.0
 10
167.5980386950797
 20
153.3181179087191
 30
0.0
 10
166.0549804272363
 20
152.5219563420779
 30
0.0
 10
163.5779567733416
 20
151.4584553657812
 30
0.0
 10
161.7878851592058
 20
151.7504272081561
 30
0.0
 10
157.5476616359603
 20
152.4425468911429
 30
0.0
 10
157.7385199258431
 20
156.6879380576162
 30
0.0
 10
158.4637125254882
 20
159.915131253424
 30
0.0
 10
159.3101724862141
 20
163.6797593449308
 30
0.0
 10
159.804888197896
 20
166.4671861020464
 30
0.0
 10
156.5933701865461
 20
168.9812445324075
 30
0.0
 10
155.177780451657
 20
170.0891872404638
 30
0.0
 10
153.2809108774784
 20
170.7609808600875
 30
0.0
 10
151.4636230090091
 20
170.8086954325582
 30
0.0
  0
SPLINE
  5
E3
330
DE
100
AcDbEntity
  8
Layer 2
 62
     7
420
 16777215
370
    35
100
AcDbSpline
210
0.0
220
0.0
230
1.0
 70
     8
 71
     3
 72
    35
 73
    31
 74
     0
 42
0.0000000001
 43
0.0000000001
 40
0.0
 40
0.0
 40
0.0
 40
0.0
 40
1.0
 40
1.0
 40
1.0
 40
2.0
 40
2.0
 40
2.0
 40
3.0
 40
3.0
 40
3.0
 40
4.0
 40
4.0
 40
4.0
 40
5.0
 40
5.0
 40
5.0
 40
6.0
 40
6.0
 40
6.0
 40
7.0
 40
7.0
 40
7.0
 40
8.0
 40
8.0
 40
8.0
 40
9.0
 40
9.0
 40
9.0
 40
10.0
 40
10.0
 40
10.0
 40
10.0
 10
187.0018499966523
 20
146.5774440822792
 30
0.0
 10
187.1441324401931
 20
146.4907999308252
 30
0.0
 10
187.2953721319956
 20
146.398815881369
 30
0.0
 10
187.5427299878365
 20
146.4796033704982
 30
0.0
 10
187.8827609122307
 20
147.608905670563
 30
0.0
 10
186.2556423145472
 20
147.6511080902574
 30
0.0
 10
186.329022848383
 20
146.4635836764917
 30
0.0
 10
186.370363994206
 20
145.7971299548702
 30
0.0
 10
187.3532497361478
 20
145.0772772532272
 30
0.0
 10
188.0081623878938
 20
145.3232570708741
 30
0.0
 10
189.5474310507034
 20
145.9008273289762
 30
0.0
 10
189.6835123223708
 20
148.6482909784629
 30
0.0
 10
188.9934596966752
 20
149.7393527186416
 30
0.0
 10
186.9939262770363
 20
152.9007445906811
 30
0.0
 10
182.7512911869511
 20
154.2913573833022
 30
0.0
 10
179.3223876504819
 20
154.302381688855
 30
0.0
 10
175.8931396044642
 20
154.312889230085
 30
0.0
 10
174.4734157549928
 20
153.7854451112932
 30
0.0
 10
170.4984645841115
 20
152.7434759817794
 30
0.0
 10
167.1312282568283
 20
151.8610147732327
 30
0.0
 10
162.5547634142224
 20
148.9345784132872
 30
0.0
 10
159.1062228334874
 20
150.8522908151515
 30
0.0
 10
155.771714913314
 20
152.70713022441
 30
0.0
 10
156.1782361805735
 20
157.1883381768488
 30
0.0
 10
157.2593071438449
 20
160.3719509147681
 30
0.0
 10
158.4688801687161
 20
163.9365912133561
 30
0.0
 10
158.73656408792
 20
167.4750487862563
 30
0.0
 10
155.0320529126309
 20
169.5522691090876
 30
0.0
 10
153.9058511985027
 20
170.1837551115339
 30
0.0
 10
152.7613904783027
 20
170.3830538853556
 30
0.0
 10
151.4625894803635
 20
170.4690090177126
 30
0.0
  0
SPLINE
  5
E4
330
DE
100
AcDbEntity
  8
Layer 2
  6
AI-Linetype-13
 62
     7
420
 16777215
370
    35
100
AcDbSpline
210
0.0
220
0.0
230
1.0
 70
     8
 71
     3
 72
    26
 73
    22
 74
     0
 42
0.0000000001
 43
0.0000000001
 40
0.0
 40
0.0
 40
0.0
 40
0.0
 40
1.0
 40
1.0
 40
1.0
 40
2.0
 40
2.0
 40
2.0
 40
3.0
 40
3.0
 40
3.0
 40
4.0
 40
4.0
 40
4.0
 40
5.0
 40
5.0
 40
5.0
 40
6.0
 40
6.0
 40
6.0
 40
7.0
 40
7.0
 40
7.0
 40
7.0
 10
190.9158229774447
 20
148.8308810391812
 30
0.0
 10
191.2437960676405
 20
157.6256930487012
 30
0.0
 10
180.1750487830813
 20
157.6119126667602
 30
0.0
 10
173.9711208332433
 20
156.6939669747154
 30
0.0
 10
172.0043158207142
 20
156.4028564062118
 30
0.0
 10
170.5508300354873
 20
155.9839327952054
 30
0.0
 10
168.719761785077
 20
155.1521144902918
 30
0.0
 10
167.2821234390823
 20
154.4990966410627
 30
0.0
 10
165.707025783226
 20
153.7608126785737
 30
0.0
 10
164.1374402801462
 20
153.4671182884561
 30
0.0
 10
162.1575439047731
 20
153.096942778566
 30
0.0
 10
160.7915635448716
 20
153.490028173433
 30
0.0
 10
159.873790107601
 20
155.3803520661896
 30
0.0
 10
158.8561089012582
 20
157.4758313950929
 30
0.0
 10
159.6061061883971
 20
158.474047811944
 30
0.0
 10
160.1149467915685
 20
160.4766818175197
 30
0.0
 10
160.7770941438335
 20
163.0792792018517
 30
0.0
 10
160.4053683409751
 20
166.0730671785338
 30
0.0
 10
159.0473117006896
 20
168.2941202378744
 30
0.0
 10
157.8639214015062
 20
170.2288858623907
 30
0.0
 10
154.9266329907822
 20
171.5912488720328
 30
0.0
 10
152.0231065158137
 20
171.1470038092098
 30
0.0
  0
ENDBLK
  5
E1
330
DE
100
AcDbEntity
  8
0
100
AcDbBlockEnd
  0
BLOCK
  5
E8
330
E6
100
AcDbEntity
  8
0
100
AcDbBlockBegin
  2
block 29
 70
     0
 71
     0
 10
0.0
 20
0.0
 30
0.0
  3
block 29
  1

  0
SPLINE
  5
EA
330
E6
100
AcDbEntity
  8
Layer 2
 62
     7
420
 16777215
370
   140
100
AcDbSpline
210
0.0
220
0.0
230
1.0
 70
     8
 71
     3
 72
    32
 73
    28
 74
     0
 42
0.0000000001
 43
0.0000000001
 40
0.0
 40
0.0
 40
0.0
 40
0.0
 40
1.0
 40
1.0
 40
1.0
 40
2.0
 40
2.0
 40
2.0
 40
3.0
 40
3.0
 40
3.0
 40
4.0
 40
4.0
 40
4.0
 40
5.0
 40
5.0
 40
5.0
 40
6.0
 40
6.0
 40
6.0
 40
7.0
 40
7.0
 40
7.0
 40
8.0
 40
8.0
 40
8.0
 40
9.0
 40
9.0
 40
9.0
 40
9.0
 10
194.4394666397582
 20
146.6680500935413
 30
0.0
 10
194.498377772556
 20
145.9419962200249
 30
0.0
 10
193.7514810713538
 20
145.8885972400035
 30
0.0
 10
193.2130126470093
 20
146.1254475546145
 30
0.0
 10
192.5880723259849
 20
148.7134032831342
 30
0.0
 10
196.2622666610039
 20
148.3402994420816
 30
0.0
 10
195.6893472818068
 20
146.3190619208855
 30
0.0
 10
195.1274522081626
 20
144.3360649595757
 30
0.0
 10
192.5295057027357
 20
144.4263264612892
 30
0.0
 10
191.5796928774523
 20
145.8560410876679
 30
0.0
 10
189.0423800525658
 20
149.6742404139703
 30
0.0
 10
193.4703612797574
 20
153.9911173117627
 30
0.0
 10
196.8410427025259
 20
154.8157009161572
 30
0.0
 10
200.2199923544589
 20
155.6418348135201
 30
0.0
 10
206.0136094320036
 20
156.7129149998843
 30
0.0
 10
214.038270345796
 20
153.1777302676952
 30
0.0
 10
215.5971760528716
 20
152.3719224336952
 30
0.0
 10
218.1021049801967
 20
151.292918527715
 30
0.0
 10
219.9180148104719
 20
151.5742105740856
 30
0.0
 10
224.2205945620004
 20
152.2406642957072
 30
0.0
 10
224.0535074309658
 20
156.4869167360519
 30
0.0
 10
223.3379610986794
 20
159.7184163012162
 30
0.0
 10
222.5032144626034
 20
163.4883842907251
 30
0.0
 10
222.0181450182802
 20
166.2789116337775
 30
0.0
 10
225.2896076910734
 20
168.7728162555499
 30
0.0
 10
226.7313801516505
 20
169.8724907344416
 30
0.0
 10
228.6582220565507
 20
170.5325710294155
 30
0.0
 10
230.5010036316109
 20
170.5694335511076
 30
0.0
  0
SPLINE
  5
EB
330
E6
100
AcDbEntity
  8
Layer 2
 62
     7
420
 16777215
370
    35
100
AcDbSpline
210
0.0
220
0.0
230
1.0
 70
     8
 71
     3
 72
    35
 73
    31
 74
     0
 42
0.0000000001
 43
0.0000000001
 40
0.0
 40
0.0
 40
0.0
 40
0.0
 40
1.0
 40
1.0
 40
1.0
 40
2.0
 40
2.0
 40
2.0
 40
3.0
 40
3.0
 40
3.0
 40
4.0
 40
4.0
 40
4.0
 40
5.0
 40
5.0
 40
5.0
 40
6.0
 40
6.0
 40
6.0
 40
7.0
 40
7.0
 40
7.0
 40
8.0
 40
8.0
 40
8.0
 40
9.0
 40
9.0
 40
9.0
 40
10.0
 40
10.0
 40
10.0
 40
10.0
 10
194.326467507842
 20
146.5552232163994
 30
0.0
 10
194.1810844783645
 20
146.4694403388167
 30
0.0
 10
194.0281222388194
 20
146.3786620727803
 30
0.0
 10
193.7769747779446
 20
146.4609998548778
 30
0.0
 10
193.4393554203902
 20
147.5925414670081
 30
0.0
 10
195.0892116482763
 20
147.6247531097952
 30
0.0
 10
195.0075628852759
 20
146.4374009508039
 30
0.0
 10
194.9613986057736
 20
145.7712917387308
 30
0.0
 10
193.9605983673085
 20
145.0576402089613
 30
0.0
 10
193.2984510150434
 20
145.3072373768676
 30
0.0
 10
191.741612365259
 20
145.8942816475542
 30
0.0
 10
191.6206895137268
 20
148.642434316138
 30
0.0
 10
192.3265895786545
 20
149.7291896869601
 30
0.0
 10
194.3726317873443
 20
152.8785237248012
 30
0.0
 10
198.6827907489404
 20
154.2429537917344
 30
0.0
 10
202.1582030744605
 20
154.2331352696014
 30
0.0
 10
205.6349934381746
 20
154.2233167474685
 30
0.0
 10
207.0705647268782
 20
153.686226361318
 30
0.0
 10
211.0940917441015
 20
152.620486072956
 30
0.0
 10
214.5026692172077
 20
151.7171820367235
 30
0.0
 10
219.1232312820248
 20
148.763184912896
 30
0.0
 10
222.6317165242032
 20
150.6600544870746
 30
0.0
 10
226.0234130294317
 20
152.4942233234216
 30
0.0
 10
225.6382513541807
 20
156.9778428427
 30
0.0
 10
224.5623480341372
 20
160.1678290072671
 30
0.0
 10
223.3572536333968
 20
163.7398762611484
 30
0.0
 10
223.1074842107162
 20
167.2802286365654
 30
0.0
 10
226.8753851429339
 20
169.3345390744198
 30
0.0
 10
228.021223901328
 20
169.9593071406699
 30
0.0
 10
229.1829100989543
 20
170.1515434687468
 30
0.0
 10
230.4996255934168
 20
170.2295748814878
 30
0.0
  0
SPLINE
  5
EC
330
E6
100
AcDbEntity
  8
Layer 2
  6
AI-Linetype-14
 62
     7
420
 16777215
370
    35
100
AcDbSpline
210
0.0
220
0.0
230
1.0
 70
     8
 71
     3
 72
    26
 73
    22
 74
     0
 42
0.0000000001
 43
0.0000000001
 40
0.0
 40
0.0
 40
0.0
 40
0.0
 40
1.0
 40
1.0
 40
1.0
 40
2.0
 40
2.0
 40
2.0
 40
3.0
 40
3.0
 40
3.0
 40
4.0
 40
4.0
 40
4.0
 40
5.0
 40
5.0
 40
5.0
 40
6.0
 40
6.0
 40
6.0
 40
7.0
 40
7.0
 40
7.0
 40
7.0
 10
190.3721869098722
 20
148.8324313321495
 30
0.0
 10
190.0934786851155
 20
157.6293103989607
 30
0.0
 10
201.3141546805743
 20
157.5481784002831
 30
0.0
 10
207.5980088456699
 20
156.5925089126748
 30
0.0
 10
209.5899630552414
 20
156.2893405099728
 30
0.0
 10
211.0610188274431
 20
155.860942886382
 30
0.0
 10
212.9117241221193
 20
155.0184447854641
 30
0.0
 10
214.3655544168947
 20
154.3564696879734
 30
0.0
 10
215.9575330406287
 20
153.6087117128999
 30
0.0
 10
217.5467555879744
 20
153.3051988006494
 30
0.0
 10
219.5518011603898
 20
152.9233099661095
 30
0.0
 10
220.9391411123
 20
153.3082993865861
 30
0.0
 10
221.8810302179673
 20
155.1924221074693
 30
0.0
 10
222.925583169095
 20
157.2818725192733
 30
0.0
 10
222.1714517673738
 20
158.284395305481
 30
0.0
 10
221.6670897883332
 20
160.2897853874449
 30
0.0
 10
221.0125216461358
 20
162.8965168863592
 30
0.0
 10
221.4066405696483
 20
165.8882378057502
 30
0.0
 10
222.7974256170437
 20
168.1010226359261
 30
0.0
 10
224.0087211896576
 20
170.0283813051492
 30
0.0
 10
226.9949299562721
 20
171.3728298182679
 30
0.0
 10
229.9356634624814
 20
170.9108425136959
 30
0.0
  0
ENDBLK
  5
E9
330
E6
100
AcDbEntity
  8
0
100
AcDbBlockEnd
  0
BLOCK
  5
F0
330
EE
100
AcDbEntity
  8
0
100
AcDbBlockBegin
  2
block 30
 70
     0
 71
     0
 10
0.0
 20
0.0
 30
0.0
  3
block 30
  1

  0
INSERT
  5
F3
330
EE
100
AcDbEntity
  8
Layer 2
100
AcDbBlockReference
  2
block 31
 10
0.0
 20
0.0
 30
0.0
  0
INSERT
  5
FB
330
EE
100
AcDbEntity
  8
Layer 2
100
AcDbBlockReference
  2
block 32
 10
0.0
 20
0.0
 30
0.0
  0
INSERT
  5
103
330
EE
100
AcDbEntity
  8
Layer 2
100
AcDbBlockReference
  2
block 33
 10
0.0
 20
0.0
 30
0.0
  0
INSERT
  5
117
330
EE
100
AcDbEntity
  8
Layer 2
100
AcDbBlockReference
  2
block 36
 10
0.0
 20
0.0
 30
0.0
  0
ENDBLK
  5
F1
330
EE
100
AcDbEntity
  8
0
100
AcDbBlockEnd
  0
BLOCK
  5
F4
330
F2
100
AcDbEntity
  8
0
100
AcDbBlockBegin
  2
block 31
 70
     0
 71
     0
 10
0.0
 20
0.0
 30
0.0
  3
block 31
  1

  0
SPLINE
  5
F6
330
F2
100
AcDbEntity
  8
Layer 2
 62
     7
420
 16777215
370
   140
100
AcDbSpline
210
0.0
220
0.0
230
1.0
 70
     8
 71
     3
 72
     8
 73
     4
 74
     0
 42
0.0000000001
 43
0.0000000001
 40
0.0
 40
0.0
 40
0.0
 40
0.0
 40
1.0
 40
1.0
 40
1.0
 40
1.0
 10
157.8305039752993
 20
120.0281602347499
 30
0.0
 10
157.8305039752993
 20
120.0281602347499
 30
0.0
 10
164.9749429926104
 20
104.5114501691846
 30
0.0
 10
157.7188828815772
 20
90.22188311546536
 30
0.0
  0
SPLINE
  5
F7
330
F2
100
AcDbEntity
  8
Layer 2
  6
AI-Linetype-15
 62
     7
420
 16777215
370
    35
100
AcDbSpline
210
0.0
220
0.0
230
1.0
 70
     8
 71
     3
 72
     8
 73
     4
 74
     0
 42
0.0000000001
 43
0.0000000001
 40
0.0
 40
0.0
 40
0.0
 40
0.0
 40
1.0
 40
1.0
 40
1.0
 40
1.0
 10
159.5051648906793
 20
119.9161946314793
 30
0.0
 10
159.5051648906793
 20
119.9161946314793
 30
0.0
 10
166.6492593984419
 20
104.399484565914
 30
0.0
 10
159.3931992874087
 20
90.10991751219474
 30
0.0
  0
SPLINE
  5
F9
330
F2
100
AcDbEntity
  8
Layer 2
 62
     7
420
 16777215
370
    35
100
AcDbSpline
210
0.0
220
0.0
230
1.0
 70
     8
 71
     3
 72
     8
 73
     4
 74
     0
 42
0.0000000001
 43
0.0000000001
 40
0.0
 40
0.0
 40
0.0
 40
0.0
 40
1.0
 40
1.0
 40
1.0
 40
1.0
 10
157.0488118096961
 20
120.1399535832463
 30
0.0
 10
157.0488118096961
 20
120.1399535832463
 30
0.0
 10
162.8541422118906
 20
104.7343478470803
 30
0.0
 10
157.0488118096961
 20
90.66871199990227
 30
0.0
  0
ENDBLK
  5
F5
330
F2
100
AcDbEntity
  8
0
100
AcDbBlockEnd
  0
BLOCK
  5
FC
330
FA
100
AcDbEntity
  8
0
100
AcDbBlockBegin
  2
block 32
 70
     0
 71
     0
 10
0.0
 20
0.0
 30
0.0
  3
block 32
  1

  0
SPLINE
  5
FE
330
FA
100
AcDbEntity
  8
Layer 2
 62
     7
420
 16777215
370
   140
100
AcDbSpline
210
0.0
220
0.0
230
1.0
 70
     8
 71
     3
 72
     8
 73
     4
 74
     0
 42
0.0000000001
 43
0.0000000001
 40
0.0
 40
0.0
 40
0.0
 40
0.0
 40
1.0
 40
1.0
 40
1.0
 40
1.0
 10
224.1313665889325
 20
120.0281602347499
 30
0.0
 10
224.1313665889325
 20
120.0281602347499
 30
0.0
 10
216.8997666558445
 20
104.5114501691846
 30
0.0
 10
224.2447102303972
 20
90.22188311546536
 30
0.0
  0
SPLINE
  5
FF
330
FA
100
AcDbEntity
  8
Layer 2
  6
AI-Linetype-16
 62
     7
420
 16777215
370
    35
100
AcDbSpline
210
0.0
220
0.0
230
1.0
 70
     8
 71
     3
 72
     8
 73
     4
 74
     0
 42
0.0000000001
 43
0.0000000001
 40
0.0
 40
0.0
 40
0.0
 40
0.0
 40
1.0
 40
1.0
 40
1.0
 40
1.0
 10
222.436724119738
 20
119.9161946314793
 30
0.0
 10
222.436724119738
 20
119.9161946314793
 30
0.0
 10
215.2047796771016
 20
104.399484565914
 30
0.0
 10
222.5493787421057
 20
90.10991751219474
 30
0.0
  0
SPLINE
  5
101
330
FA
100
AcDbEntity
  8
Layer 2
 62
     7
420
 16777215
370
    35
100
AcDbSpline
210
0.0
220
0.0
230
1.0
 70
     8
 71
     3
 72
     8
 73
     4
 74
     0
 42
0.0000000001
 43
0.0000000001
 40
0.0
 40
0.0
 40
0.0
 40
0.0
 40
1.0
 40
1.0
 40
1.0
 40
1.0
 10
224.9227050218943
 20
120.1399535832463
 30
0.0
 10
224.9227050218943
 20
120.1399535832463
 30
0.0
 10
219.0464056527037
 20
104.7343478470803
 30
0.0
 10
224.9227050218943
 20
90.66871199990227
 30
0.0
  0
ENDBLK
  5
FD
330
FA
100
AcDbEntity
  8
0
100
AcDbBlockEnd
  0
BLOCK
  5
104
330
102
100
AcDbEntity
  8
0
100
AcDbBlockBegin
  2
block 33
 70
     0
 71
     0
 10
0.0
 20
0.0
 30
0.0
  3
block 33
  1

  0
INSERT
  5
107
330
102
100
AcDbEntity
  8
Layer 2
100
AcDbBlockReference
  2
block 34
 10
0.0
 20
0.0
 30
0.0
  0
INSERT
  5
10F
330
102
100
AcDbEntity
  8
Layer 2
100
AcDbBlockReference
  2
block 35
 10
0.0
 20
0.0
 30
0.0
  0
ENDBLK
  5
105
330
102
100
AcDbEntity
  8
0
100
AcDbBlockEnd
  0
BLOCK
  5
108
330
106
100
AcDbEntity
  8
0
100
AcDbBlockBegin
  2
block 34
 70
     0
 71
     0
 10
0.0
 20
0.0
 30
0.0
  3
block 34
  1

  0
SPLINE
  5
10A
330
106
100
AcDbEntity
  8
Layer 2
 62
     7
420
 16777215
370
   140
100
AcDbSpline
210
0.0
220
0.0
230
1.0
 70
     8
 71
     3
 72
    44
 73
    40
 74
     0
 42
0.0000000001
 43
0.0000000001
 40
0.0
 40
0.0
 40
0.0
 40
0.0
 40
1.0
 40
1.0
 40
1.0
 40
2.0
 40
2.0
 40
2.0
 40
3.0
 40
3.0
 40
3.0
 40
4.0
 40
4.0
 40
4.0
 40
5.0
 40
5.0
 40
5.0
 40
6.0
 40
6.0
 40
6.0
 40
7.0
 40
7.0
 40
7.0
 40
8.0
 40
8.0
 40
8.0
 40
9.0
 40
9.0
 40
9.0
 40
10.0
 40
10.0
 40
10.0
 40
11.0
 40
11.0
 40
11.0
 40
12.0
 40
12.0
 40
12.0
 40
13.0
 40
13.0
 40
13.0
 40
13.0
 10
188.3313123444102
 20
128.8474324222152
 30
0.0
 10
187.2791801832149
 20
128.6607082469147
 30
0.0
 10
187.321210348135
 20
130.2525146158744
 30
0.0
 10
188.4429334381323
 20
130.1619086046123
 30
0.0
 10
189.2463297052926
 20
130.0967962999411
 30
0.0
 10
189.7241644490967
 20
128.7866264869006
 30
0.0
 10
189.4254746705256
 20
128.0879611224919
 30
0.0
 10
188.7991563113072
 20
126.6237955412607
 30
0.0
 10
186.3593396886532
 20
126.8745984925869
 30
0.0
 10
185.8697916201992
 20
128.2832980365056
 30
0.0
 10
185.225214254909
 20
130.1371039171185
 30
0.0
 10
187.2013210252483
 20
132.1176893115886
 30
0.0
 10
189.0013834162913
 20
131.644160937141
 30
0.0
 10
191.5686685718995
 20
130.9684054577093
 30
0.0
 10
191.7130180727315
 20
128.2548759987523
 30
0.0
 10
191.1221841970111
 20
126.7261148771726
 30
0.0
 10
189.6032415975645
 20
122.7976724953423
 30
0.0
 10
183.2008761477762
 20
122.7540920374538
 30
0.0
 10
179.8470756928855
 20
123.042274274795
 30
0.0
 10
174.6921793183061
 20
123.4854858089724
 30
0.0
 10
171.504776975353
 20
126.2002210513493
 30
0.0
 10
166.8976507829284
 20
128.5125691410489
 30
0.0
 10
163.3423122421505
 20
130.2966118380856
 30
0.0
 10
158.0289414752497
 20
132.1118326492637
 30
0.0
 10
155.0640923006437
 20
127.8426703239421
 30
0.0
 10
152.2732204480428
 20
123.8239664403982
 30
0.0
 10
156.7173936240151
 20
119.3935736463669
 30
0.0
 10
160.1938394781807
 20
120.8074408335134
 30
0.0
 10
163.9514051239427
 20
122.3358574455445
 30
0.0
 10
161.5518961184662
 20
129.1476724937548
 30
0.0
 10
158.1026665186341
 20
126.8162041241119
 30
0.0
 10
156.7707926040365
 20
125.9158284190419
 30
0.0
 10
156.5062092707693
 20
123.9448892919305
 30
0.0
 10
158.1874158675712
 20
123.3804103966723
 30
0.0
 10
158.8316487233129
 20
123.1638861454243
 30
0.0
 10
159.9809325771923
 20
123.1867960304012
 30
0.0
 10
159.9816215962893
 20
124.1588297215645
 30
0.0
 10
159.9826551249349
 20
124.9835855807333
 30
0.0
 10
158.8629990922287
 20
125.1546345715759
 30
0.0
 10
158.6363118092993
 20
124.6053140964528
 30
0.0
  0
SPLINE
  5
10B
330
106
100
AcDbEntity
  8
Layer 2
  6
AI-Linetype-17
 62
     7
420
 16777215
370
    35
100
AcDbSpline
210
0.0
220
0.0
230
1.0
 70
     8
 71
     3
 72
    29
 73
    25
 74
     0
 42
0.0000000001
 43
0.0000000001
 40
0.0
 40
0.0
 40
0.0
 40
0.0
 40
1.0
 40
1.0
 40
1.0
 40
2.0
 40
2.0
 40
2.0
 40
3.0
 40
3.0
 40
3.0
 40
4.0
 40
4.0
 40
4.0
 40
5.0
 40
5.0
 40
5.0
 40
6.0
 40
6.0
 40
6.0
 40
7.0
 40
7.0
 40
7.0
 40
8.0
 40
8.0
 40
8.0
 40
8.0
 10
158.859898506292
 20
124.7167629354007
 30
0.0
 10
160.1094346387921
 20
124.673010222738
 30
0.0
 10
158.0933647608239
 20
123.3552611996299
 30
0.0
 10
157.9669297565152
 20
125.051626216567
 30
0.0
 10
157.9004394136499
 20
125.948729080926
 30
0.0
 10
158.785139934262
 20
126.4098551116267
 30
0.0
 10
159.6471028246716
 20
126.1742105804356
 30
0.0
 10
161.5656765004072
 20
125.648833518935
 30
0.0
 10
161.2390814484055
 20
123.0415852556979
 30
0.0
 10
159.6657063402919
 20
122.3424031269665
 30
0.0
 10
155.6576822527523
 20
120.5605997419953
 30
0.0
 10
154.0209173877101
 20
126.8148260859178
 30
0.0
 10
157.7433430595225
 20
128.4011203021011
 30
0.0
 10
161.3438123511571
 20
129.9355658312314
 30
0.0
 10
165.9075303404676
 20
126.7333495776917
 30
0.0
 10
169.0212076400364
 20
125.0242377074592
 30
0.0
 10
172.2954263892178
 20
123.2260701189331
 30
0.0
 10
175.9069199864052
 20
121.7942884352632
 30
0.0
 10
179.5122124117192
 20
121.2561645204672
 30
0.0
 10
181.6864121724603
 20
120.9318087805309
 30
0.0
 10
185.211433872968
 20
121.0740912240718
 30
0.0
 10
187.2147568976408
 20
121.926063337574
 30
0.0
 10
191.3454263844553
 20
123.6005519981797
 30
0.0
 10
190.8004122786888
 20
125.3437703137161
 30
0.0
 10
191.3454263844553
 20
126.503217199277
 30
0.0
  0
SPLINE
  5
10D
330
106
100
AcDbEntity
  8
Layer 2
 62
     7
420
 16777215
370
    70
100
AcDbSpline
210
0.0
220
0.0
230
1.0
 70
     8
 71
     3
 72
    20
 73
    16
 74
     0
 42
0.0000000001
 43
0.0000000001
 40
0.0
 40
0.0
 40
0.0
 40
0.0
 40
1.0
 40
1.0
 40
1.0
 40
2.0
 40
2.0
 40
2.0
 40
3.0
 40
3.0
 40
3.0
 40
4.0
 40
4.0
 40
4.0
 40
5.0
 40
5.0
 40
5.0
 40
5.0
 10
191.2338052907332
 20
127.6194281364979
 30
0.0
 10
188.7926106298852
 20
124.2275593764952
 30
0.0
 10
183.9777451797
 20
123.6008965077283
 30
0.0
 10
179.1770046210044
 20
124.7171074449492
 30
0.0
 10
175.4649142356477
 20
125.5804483735528
 30
0.0
 10
171.5747124137036
 20
128.2715847118557
 30
0.0
 10
168.1254828138714
 20
129.9912041233182
 30
0.0
 10
164.727240627221
 20
131.6856743377383
 30
0.0
 10
161.7368977460241
 20
132.6504733283825
 30
0.0
 10
157.9665852469667
 20
131.6384765295904
 30
0.0
 10
154.9162977043265
 20
130.8195773327465
 30
0.0
 10
152.2570284992621
 20
128.4925875872345
 30
0.0
 10
152.9432915199239
 20
124.6056586060014
 30
0.0
 10
153.2781548010902
 20
122.7077555031772
 30
0.0
 10
154.5052978129362
 20
121.9465616557113
 30
0.0
 10
155.5105766755321
 20
121.4795789626857
 30
0.0
  0
ENDBLK
  5
109
330
106
100
AcDbEntity
  8
0
100
AcDbBlockEnd
  0
BLOCK
  5
110
330
10E
100
AcDbEntity
  8
0
100
AcDbBlockBegin
  2
block 35
 70
     0
 71
     0
 10
0.0
 20
0.0
 30
0.0
  3
block 35
  1

  0
SPLINE
  5
112
330
10E
100
AcDbEntity
  8
Layer 2
 62
     7
420
 16777215
370
   140
100
AcDbSpline
210
0.0
220
0.0
230
1.0
 70
     8
 71
     3
 72
    44
 73
    40
 74
     0
 42
0.0000000001
 43
0.0000000001
 40
0.0
 40
0.0
 40
0.0
 40
0.0
 40
1.0
 40
1.0
 40
1.0
 40
2.0
 40
2.0
 40
2.0
 40
3.0
 40
3.0
 40
3.0
 40
4.0
 40
4.0
 40
4.0
 40
5.0
 40
5.0
 40
5.0
 40
6.0
 40
6.0
 40
6.0
 40
7.0
 40
7.0
 40
7.0
 40
8.0
 40
8.0
 40
8.0
 40
9.0
 40
9.0
 40
9.0
 40
10.0
 40
10.0
 40
10.0
 40
11.0
 40
11.0
 40
11.0
 40
12.0
 40
12.0
 40
12.0
 40
13.0
 40
13.0
 40
13.0
 40
13.0
 10
194.2675563750442
 20
128.8467434031182
 30
0.0
 10
195.3007405110706
 20
128.6600192278176
 30
0.0
 10
195.2597438747962
 20
130.2518255967773
 30
0.0
 10
194.1583468481618
 20
130.1612195855153
 30
0.0
 10
193.3694199820396
 20
130.096107280844
 30
0.0
 10
192.8998534674
 20
128.7859374678035
 30
0.0
 10
193.1930310931948
 20
128.0874443581691
 30
0.0
 10
193.8083251468604
 20
126.6231065221637
 30
0.0
 10
196.2043890568517
 20
126.8740817282641
 30
0.0
 10
196.6853243865926
 20
128.2826090174085
 30
0.0
 10
197.3178439176844
 20
130.1364148980215
 30
0.0
 10
195.3775661403917
 20
132.1170002924916
 30
0.0
 10
193.60988764691
 20
131.643471918044
 30
0.0
 10
191.0880777517071
 20
130.9677164386123
 30
0.0
 10
190.9464843272634
 20
128.2541869796552
 30
0.0
 10
191.5266384069795
 20
126.7255981128499
 30
0.0
 10
193.0183647520927
 20
122.7969834762452
 30
0.0
 10
199.3060085222221
 20
122.7534030183568
 30
0.0
 10
202.5998643156695
 20
123.0415852556979
 30
0.0
 10
207.6624321312441
 20
123.4847967898753
 30
0.0
 10
210.7929903986906
 20
126.1997042870265
 30
0.0
 10
215.3174342994693
 20
128.5118801219519
 30
0.0
 10
218.80903857377
 20
130.2959228189885
 30
0.0
 10
224.0273247052779
 20
132.1111436301667
 30
0.0
 10
226.9387748998626
 20
127.8421535596193
 30
0.0
 10
229.6796928679273
 20
123.8232774213011
 30
0.0
 10
225.3151013976643
 20
119.3928846272698
 30
0.0
 10
221.9010117717817
 20
120.8067518144164
 30
0.0
 10
218.2109699975306
 20
122.3351684264475
 30
0.0
 10
220.5674153094415
 20
129.1469834746577
 30
0.0
 10
223.9546331905391
 20
126.8155151050149
 30
0.0
 10
225.2627359462885
 20
125.9151393999448
 30
0.0
 10
225.5228406554249
 20
123.9442002728334
 30
0.0
 10
223.8716063893446
 20
123.3797213775752
 30
0.0
 10
223.2390868582527
 20
123.1631971263273
 30
0.0
 10
222.1101290677364
 20
123.1861070113042
 30
0.0
 10
222.1094400486393
 20
124.1581407024674
 30
0.0
 10
222.1087510295423
 20
124.9830688164105
 30
0.0
 10
223.207736489337
 20
125.1541178072531
 30
0.0
 10
223.4306341672326
 20
124.6046250773558
 30
0.0
  0
SPLINE
  5
113
330
10E
100
AcDbEntity
  8
Layer 2
  6
AI-Linetype-18
 62
     7
420
 16777215
370
    35
100
AcDbSpline
210
0.0
220
0.0
230
1.0
 70
     8
 71
     3
 72
    29
 73
    25
 74
     0
 42
0.0000000001
 43
0.0000000001
 40
0.0
 40
0.0
 40
0.0
 40
0.0
 40
1.0
 40
1.0
 40
1.0
 40
2.0
 40
2.0
 40
2.0
 40
3.0
 40
3.0
 40
3.0
 40
4.0
 40
4.0
 40
4.0
 40
5.0
 40
5.0
 40
5.0
 40
6.0
 40
6.0
 40
6.0
 40
7.0
 40
7.0
 40
7.0
 40
8.0
 40
8.0
 40
8.0
 40
8.0
 10
223.2111815848222
 20
124.7160739163036
 30
0.0
 10
221.9836940634277
 20
124.6723212036409
 30
0.0
 10
223.9639349483493
 20
123.3545721805329
 30
0.0
 10
224.0879583858183
 20
125.0511094522442
 30
0.0
 10
224.153415200038
 20
125.9482123166032
 30
0.0
 10
223.2849066282066
 20
126.4093383473039
 30
0.0
 10
222.4381021579321
 20
126.1735215613386
 30
0.0
 10
220.553979437049
 20
125.648144499838
 30
0.0
 10
220.8743733171773
 20
123.0408962366009
 30
0.0
 10
222.4194986423118
 20
122.3417141078694
 30
0.0
 10
226.3558647437583
 20
120.5599107228982
 30
0.0
 10
227.9636908067244
 20
126.8141370668208
 30
0.0
 10
224.3074109682287
 20
128.4004312830041
 30
0.0
 10
220.7717094717168
 20
129.9348768121343
 30
0.0
 10
216.2896402454068
 20
126.7326605585946
 30
0.0
 10
213.231773492699
 20
125.0235486883622
 30
0.0
 10
210.0161213667668
 20
123.225381099836
 30
0.0
 10
206.4693955647021
 20
121.7935994161662
 30
0.0
 10
202.9288709345109
 20
121.2554755013702
 30
0.0
 10
200.793600752753
 20
120.9311197614339
 30
0.0
 10
197.331968809174
 20
121.0734022049747
 30
0.0
 10
195.3641302679993
 20
121.925374318477
 30
0.0
 10
191.3075303341176
 20
123.5998629790827
 30
0.0
 10
191.8428981725254
 20
125.3430812946191
 30
0.0
 10
191.3075303341176
 20
126.5025281801799
 30
0.0
  0
SPLINE
  5
115
330
10E
100
AcDbEntity
  8
Layer 2
 62
     7
420
 16777215
370
    70
100
AcDbSpline
210
0.0
220
0.0
230
1.0
 70
     8
 71
     3
 72
    20
 73
    16
 74
     0
 42
0.0000000001
 43
0.0000000001
 40
0.0
 40
0.0
 40
0.0
 40
0.0
 40
1.0
 40
1.0
 40
1.0
 40
2.0
 40
2.0
 40
2.0
 40
3.0
 40
3.0
 40
3.0
 40
4.0
 40
4.0
 40
4.0
 40
5.0
 40
5.0
 40
5.0
 40
5.0
 10
191.4170843705485
 20
127.6187391174009
 30
0.0
 10
193.8145263187339
 20
124.2268703573982
 30
0.0
 10
198.5432643817878
 20
123.6002074886312
 30
0.0
 10
203.2575330438037
 20
124.7164184258522
 30
0.0
 10
206.9038221053921
 20
125.57993160923
 30
0.0
 10
210.7237439794371
 20
128.2708956927587
 30
0.0
 10
214.1116508796318
 20
129.9905151042211
 30
0.0
 10
217.4489148761933
 20
131.6849853186413
 30
0.0
 10
220.3858587773688
 20
132.6497843092855
 30
0.0
 10
224.0883028953668
 20
131.6379597652676
 30
0.0
 10
227.0841579293401
 20
130.8188883136494
 30
0.0
 10
229.6951957976109
 20
128.4918985681375
 30
0.0
 10
229.0220241397931
 20
124.6049695869043
 30
0.0
 10
228.6930175209518
 20
122.7070664840802
 30
0.0
 10
227.4872341011143
 20
121.9460448913885
 30
0.0
 10
226.5002142445902
 20
121.4788899435886
 30
0.0
  0
ENDBLK
  5
111
330
10E
100
AcDbEntity
  8
0
100
AcDbBlockEnd
  0
BLOCK
  5
118
330
116
100
AcDbEntity
  8
0
100
AcDbBlockBegin
  2
block 36
 70
     0
 71
     0
 10
0.0
 20
0.0
 30
0.0
  3
block 36
  1

  0
INSERT
  5
11B
330
116
100
AcDbEntity
  8
Layer 2
100
AcDbBlockReference
  2
block 37
 10
0.0
 20
0.0
 30
0.0
  0
INSERT
  5
123
330
116
100
AcDbEntity
  8
Layer 2
100
AcDbBlockReference
  2
block 38
 10
0.0
 20
0.0
 30
0.0
  0
ENDBLK
  5
119
330
116
100
AcDbEntity
  8
0
100
AcDbBlockEnd
  0
BLOCK
  5
11C
330
11A
100
AcDbEntity
  8
0
100
AcDbBlockBegin
  2
block 37
 70
     0
 71
     0
 10
0.0
 20
0.0
 30
0.0
  3
block 37
  1

  0
SPLINE
  5
11E
330
11A
100
AcDbEntity
  8
Layer 2
 62
     7
420
 16777215
370
   140
100
AcDbSpline
210
0.0
220
0.0
230
1.0
 70
     8
 71
     3
 72
    44
 73
    40
 74
     0
 42
0.0000000001
 43
0.0000000001
 40
0.0
 40
0.0
 40
0.0
 40
0.0
 40
1.0
 40
1.0
 40
1.0
 40
2.0
 40
2.0
 40
2.0
 40
3.0
 40
3.0
 40
3.0
 40
4.0
 40
4.0
 40
4.0
 40
5.0
 40
5.0
 40
5.0
 40
6.0
 40
6.0
 40
6.0
 40
7.0
 40
7.0
 40
7.0
 40
8.0
 40
8.0
 40
8.0
 40
9.0
 40
9.0
 40
9.0
 40
10.0
 40
10.0
 40
10.0
 40
11.0
 40
11.0
 40
11.0
 40
12.0
 40
12.0
 40
12.0
 40
13.0
 40
13.0
 40
13.0
 40
13.0
 10
188.3316568539587
 20
81.61500106466569
 30
0.0
 10
187.2795246927635
 20
81.80620386409706
 30
0.0
 10
187.3215548576835
 20
80.17874075686504
 30
0.0
 10
188.4432779476809
 20
80.27141382541826
 30
0.0
 10
189.2466742148411
 20
80.33755965873506
 30
0.0
 10
189.7241644490967
 20
81.6770127834002
 30
0.0
 10
189.4258191800741
 20
82.39152558704102
 30
0.0
 10
188.7995008208557
 20
83.88876408493059
 30
0.0
 10
186.3596841982018
 20
83.632448980828
 30
0.0
 10
185.8701361297477
 20
82.19205455844505
 30
0.0
 10
185.2255587644575
 20
80.29690753200912
 30
0.0
 10
187.2016655347968
 20
78.27188040577926
 30
0.0
 10
189.0013834162913
 20
78.75591632145685
 30
0.0
 10
191.569013081448
 20
79.44665796624945
 30
0.0
 10
191.71336258228
 20
82.22133787006968
 30
0.0
 10
191.1225287065596
 20
83.784033182179
 30
0.0
 10
189.603586107113
 20
87.8010145179803
 30
0.0
 10
183.2012206573247
 20
87.84545624974002
 30
0.0
 10
179.847420202434
 20
87.55055607620264
 30
0.0
 10
174.6925238278546
 20
87.09787052944081
 30
0.0
 10
171.5051214849015
 20
84.32181258742649
 30
0.0
 10
166.8979952924769
 20
81.95778806544806
 30
0.0
 10
163.3426567516991
 20
80.13361000600827
 30
0.0
 10
158.0292859847982
 20
78.27773706810419
 30
0.0
 10
155.0644368101922
 20
82.64267304791572
 30
0.0
 10
152.2735649575913
 20
86.75094941407616
 30
0.0
 10
156.7177381335636
 20
91.28090546763117
 30
0.0
 10
160.1941839877292
 20
89.83534340202033
 30
0.0
 10
163.9517496334912
 20
88.27264808991102
 30
0.0
 10
161.5522406280147
 20
81.30838756647846
 30
0.0
 10
158.1030110281826
 20
83.6917046231743
 30
0.0
 10
156.771137113585
 20
84.6129231559301
 30
0.0
 10
156.5062092707693
 20
86.6276149957042
 30
0.0
 10
158.1877603771197
 20
87.20501299903208
 30
0.0
 10
158.8319932328615
 20
87.42618812918512
 30
0.0
 10
159.9812770867408
 20
87.40276147988543
 30
0.0
 10
159.9819661058378
 20
86.40885143239085
 30
0.0
 10
159.9829996344834
 20
85.56583656715021
 30
0.0
 10
158.8633436017772
 20
85.390481206951
 30
0.0
 10
158.6366563188478
 20
85.95237628059525
 30
0.0
  0
SPLINE
  5
11F
330
11A
100
AcDbEntity
  8
Layer 2
  6
AI-Linetype-19
 62
     7
420
 16777215
370
    35
100
AcDbSpline
210
0.0
220
0.0
230
1.0
 70
     8
 71
     3
 72
    29
 73
    25
 74
     0
 42
0.0000000001
 43
0.0000000001
 40
0.0
 40
0.0
 40
0.0
 40
0.0
 40
1.0
 40
1.0
 40
1.0
 40
2.0
 40
2.0
 40
2.0
 40
3.0
 40
3.0
 40
3.0
 40
4.0
 40
4.0
 40
4.0
 40
5.0
 40
5.0
 40
5.0
 40
6.0
 40
6.0
 40
6.0
 40
7.0
 40
7.0
 40
7.0
 40
8.0
 40
8.0
 40
8.0
 40
8.0
 10
158.8602430158405
 20
85.838688129582
 30
0.0
 10
160.1097791483406
 20
85.88312986134171
 30
0.0
 10
158.0937092703724
 20
87.23050670562293
 30
0.0
 10
157.9672742660638
 20
85.49590112879964
 30
0.0
 10
157.9004394136499
 20
84.57881671062613
 30
0.0
 10
158.785139934262
 20
84.10718313869543
 30
0.0
 10
159.6474473342201
 20
84.34868433221145
 30
0.0
 10
161.5660210099557
 20
84.88543020881337
 30
0.0
 10
161.239425957954
 20
87.55124509529969
 30
0.0
 10
159.6660508498404
 20
88.26610240848903
 30
0.0
 10
155.6580267623008
 20
90.08786890108915
 30
0.0
 10
154.0209173877101
 20
83.6930826613684
 30
0.0
 10
157.743687569071
 20
82.0714762164613
 30
0.0
 10
161.3441568607056
 20
80.50223522293
 30
0.0
 10
165.9078748500161
 20
83.77679848165997
 30
0.0
 10
169.0215521495849
 20
85.52415091177869
 30
0.0
 10
172.2957708987663
 20
87.36279837225652
 30
0.0
 10
175.9072644959537
 20
88.82661944393918
 30
0.0
 10
179.5122124117192
 20
89.37680119293358
 30
0.0
 10
181.6867566820089
 20
89.70821937861461
 30
0.0
 10
185.2117783825165
 20
89.5631808586856
 30
0.0
 10
187.2151014071893
 20
88.69191621046592
 30
0.0
 10
191.3457708940038
 20
86.98004826384528
 30
0.0
 10
190.8007567882373
 20
85.197555859777
 30
0.0
 10
191.3457708940038
 20
84.01244301285107
 30
0.0
  0
SPLINE
  5
121
330
11A
100
AcDbEntity
  8
Layer 2
 62
     7
420
 16777215
370
    70
100
AcDbSpline
210
0.0
220
0.0
230
1.0
 70
     8
 71
     3
 72
    20
 73
    16
 74
     0
 42
0.0000000001
 43
0.0000000001
 40
0.0
 40
0.0
 40
0.0
 40
0.0
 40
1.0
 40
1.0
 40
1.0
 40
2.0
 40
2.0
 40
2.0
 40
3.0
 40
3.0
 40
3.0
 40
4.0
 40
4.0
 40
4.0
 40
5.0
 40
5.0
 40
5.0
 40
5.0
 10
191.2341498002818
 20
82.87108287858779
 30
0.0
 10
188.7929551394337
 20
86.33891599404028
 30
0.0
 10
183.9780896892485
 20
86.97935924474822
 30
0.0
 10
179.1773491305529
 20
85.83799911048494
 30
0.0
 10
175.4649142356477
 20
84.95571015671247
 30
0.0
 10
171.5750569232521
 20
82.20445690219195
 30
0.0
 10
168.1254828138714
 20
80.44608016652043
 30
0.0
 10
164.7275851367695
 20
78.71354164698829
 30
0.0
 10
161.7372422555727
 20
77.72686630001273
 30
0.0
 10
157.9669297565152
 20
78.76177298378178
 30
0.0
 10
154.916642213875
 20
79.5989311866975
 30
0.0
 10
152.2577175183592
 20
81.97811412881103
 30
0.0
 10
152.9432915199239
 20
85.95237628059525
 30
0.0
 10
153.2781548010902
 20
87.89265405788795
 30
0.0
 10
154.5059868320332
 20
88.6709011280059
 30
0.0
 10
155.5112656946291
 20
89.14839136226152
 30
0.0
  0
ENDBLK
  5
11D
330
11A
100
AcDbEntity
  8
0
100
AcDbBlockEnd
  0
BLOCK
  5
124
330
122
100
AcDbEntity
  8
0
100
AcDbBlockBegin
  2
block 38
 70
     0
 71
     0
 10
0.0
 20
0.0
 30
0.0
  3
block 38
  1

  0
SPLINE
  5
126
330
122
100
AcDbEntity
  8
Layer 2
 62
     7
420
 16777215
370
   140
100
AcDbSpline
210
0.0
220
0.0
230
1.0
 70
     8
 71
     3
 72
    44
 73
    40
 74
     0
 42
0.0000000001
 43
0.0000000001
 40
0.0
 40
0.0
 40
0.0
 40
0.0
 40
1.0
 40
1.0
 40
1.0
 40
2.0
 40
2.0
 40
2.0
 40
3.0
 40
3.0
 40
3.0
 40
4.0
 40
4.0
 40
4.0
 40
5.0
 40
5.0
 40
5.0
 40
6.0
 40
6.0
 40
6.0
 40
7.0
 40
7.0
 40
7.0
 40
8.0
 40
8.0
 40
8.0
 40
9.0
 40
9.0
 40
9.0
 40
10.0
 40
10.0
 40
10.0
 40
11.0
 40
11.0
 40
11.0
 40
12.0
 40
12.0
 40
12.0
 40
13.0
 40
13.0
 40
13.0
 40
13.0
 10
194.2679008845928
 20
81.61569008376274
 30
0.0
 10
195.3010850206192
 20
81.80654837364558
 30
0.0
 10
195.2600883843447
 20
80.17942977596209
 30
0.0
 10
194.1586913577103
 20
80.27210284451532
 30
0.0
 10
193.3697644915881
 20
80.33824867783211
 30
0.0
 10
192.9001979769486
 20
81.67770180249724
 30
0.0
 10
193.1933756027433
 20
82.39221460613805
 30
0.0
 10
193.808669656409
 20
83.88945310402764
 30
0.0
 10
196.2047335664002
 20
83.63313799992505
 30
0.0
 10
196.6856688961411
 20
82.19274357754209
 30
0.0
 10
197.318188427233
 20
80.29759655110615
 30
0.0
 10
195.3779106499402
 20
78.27256942487631
 30
0.0
 10
193.6102321564586
 20
78.7566053405539
 30
0.0
 10
191.0884222612557
 20
79.4473469853465
 30
0.0
 10
190.9468288368119
 20
82.22202688916671
 30
0.0
 10
191.526982916528
 20
83.78472220127604
 30
0.0
 10
193.0187092616412
 20
87.80170353707736
 30
0.0
 10
199.3063530317706
 20
87.84614526883708
 30
0.0
 10
202.600208825218
 20
87.55124509529969
 30
0.0
 10
207.6627766407927
 20
87.09855954853786
 30
0.0
 10
210.7933349082392
 20
84.32250160652355
 30
0.0
 10
215.3177788090178
 20
81.95847708454511
 30
0.0
 10
218.8093830833185
 20
80.13429902510532
 30
0.0
 10
224.0276692148264
 20
78.27842608720123
 30
0.0
 10
226.9391194094111
 20
82.64336206701277
 30
0.0
 10
229.6800373774758
 20
86.7516384331732
 30
0.0
 10
225.3154459072128
 20
91.28159448672821
 30
0.0
 10
221.9013562813302
 20
89.83603242111738
 30
0.0
 10
218.2109699975306
 20
88.27333710900805
 30
0.0
 10
220.5674153094415
 20
81.30907658557551
 30
0.0
 10
223.9549777000877
 20
83.69239364227136
 30
0.0
 10
225.263080455837
 20
84.61361217502716
 30
0.0
 10
225.5231851649734
 20
86.62830401480126
 30
0.0
 10
223.8719508988931
 20
87.20570201812913
 30
0.0
 10
223.2394313678013
 20
87.42687714828217
 30
0.0
 10
222.1104735772849
 20
87.40310598943395
 30
0.0
 10
222.1097845581878
 20
86.4095404514879
 30
0.0
 10
222.1090955390908
 20
85.56652558624727
 30
0.0
 10
223.2080809988855
 20
85.39117022604805
 30
0.0
 10
223.4309786767812
 20
85.9530652996923
 30
0.0
  0
SPLINE
  5
127
330
122
100
AcDbEntity
  8
Layer 2
  6
AI-Linetype-20
 62
     7
420
 16777215
370
    35
100
AcDbSpline
210
0.0
220
0.0
230
1.0
 70
     8
 71
     3
 72
    29
 73
    25
 74
     0
 42
0.0000000001
 43
0.0000000001
 40
0.0
 40
0.0
 40
0.0
 40
0.0
 40
1.0
 40
1.0
 40
1.0
 40
2.0
 40
2.0
 40
2.0
 40
3.0
 40
3.0
 40
3.0
 40
4.0
 40
4.0
 40
4.0
 40
5.0
 40
5.0
 40
5.0
 40
6.0
 40
6.0
 40
6.0
 40
7.0
 40
7.0
 40
7.0
 40
8.0
 40
8.0
 40
8.0
 40
8.0
 10
223.2115260943708
 20
85.83937714867905
 30
0.0
 10
221.9840385729762
 20
85.88381888043877
 30
0.0
 10
223.9642794578978
 20
87.23119572471998
 30
0.0
 10
224.0883028953668
 20
85.49659014789668
 30
0.0
 10
224.1537597095866
 20
84.57950572972318
 30
0.0
 10
223.2849066282066
 20
84.10787215779249
 30
0.0
 10
222.4384466674807
 20
84.3493733513085
 30
0.0
 10
220.5543239465975
 20
84.88611922791041
 30
0.0
 10
220.8747178267258
 20
87.55158960484822
 30
0.0
 10
222.4198431518603
 20
88.26679142758609
 30
0.0
 10
226.3562092533068
 20
90.08821341063768
 30
0.0
 10
227.9640353162729
 20
83.69377168046545
 30
0.0
 10
224.3077554777772
 20
82.07216523555834
 30
0.0
 10
220.7720539812653
 20
80.5036132611241
 30
0.0
 10
216.2899847549553
 20
83.77748750075702
 30
0.0
 10
213.2321180022475
 20
85.52449542132722
 30
0.0
 10
210.0164658763154
 20
87.36348739135357
 30
0.0
 10
206.4693955647021
 20
88.82730846303623
 30
0.0
 10
202.9292154440594
 20
89.37749021203064
 30
0.0
 10
200.7939452623015
 20
89.70890839771167
 30
0.0
 10
197.3323133187225
 20
89.56386987778265
 30
0.0
 10
195.3644747775478
 20
88.69260522956296
 30
0.0
 10
191.3078748436661
 20
86.98073728294231
 30
0.0
 10
191.8432426820739
 20
85.19824487887405
 30
0.0
 10
191.3078748436661
 20
84.0131320319481
 30
0.0
  0
SPLINE
  5
129
330
122
100
AcDbEntity
  8
Layer 2
 62
     7
420
 16777215
370
    70
100
AcDbSpline
210
0.0
220
0.0
230
1.0
 70
     8
 71
     3
 72
    20
 73
    16
 74
     0
 42
0.0000000001
 43
0.0000000001
 40
0.0
 40
0.0
 40
0.0
 40
0.0
 40
1.0
 40
1.0
 40
1.0
 40
2.0
 40
2.0
 40
2.0
 40
3.0
 40
3.0
 40
3.0
 40
4.0
 40
4.0
 40
4.0
 40
5.0
 40
5.0
 40
5.0
 40
5.0
 10
191.417428880097
 20
82.87142738813631
 30
0.0
 10
193.8148708282824
 20
86.33960501313733
 30
0.0
 10
198.5436088913363
 20
86.98004826384528
 30
0.0
 10
203.2578775533522
 20
85.838688129582
 30
0.0
 10
206.9041666149406
 20
84.95639917580951
 30
0.0
 10
210.7240884889856
 20
82.20514592128899
 30
0.0
 10
214.1119953891804
 20
80.44676918561748
 30
0.0
 10
217.4489148761933
 20
78.71423066608533
 30
0.0
 10
220.3862032869174
 20
77.72755531910978
 30
0.0
 10
224.0886474049153
 20
78.76246200287883
 30
0.0
 10
227.0845024388886
 20
79.59962020579454
 30
0.0
 10
229.6955403071595
 20
81.97880314790808
 30
0.0
 10
229.0223686493416
 20
85.9530652996923
 30
0.0
 10
228.6933620305003
 20
87.893343076985
 30
0.0
 10
227.4875786106628
 20
88.67159014710295
 30
0.0
 10
226.5005587541388
 20
89.14908038135857
 30
0.0
  0
ENDBLK
  5
125
330
122
100
AcDbEntity
  8
0
100
AcDbBlockEnd
  0
BLOCK
  5
12C
330
12A
100
AcDbEntity
  8
0
100
AcDbBlockBegin
  2
block 39
 70
     0
 71
     0
 10
0.0
 20
0.0
 30
0.0
  3
block 39
  1

  0
INSERT
  5
12F
330
12A
100
AcDbEntity
  8
Layer 2
100
AcDbBlockReference
  2
block 40
 10
0.0
 20
0.0
 30
0.0
  0
INSERT
  5
137
330
12A
100
AcDbEntity
  8
Layer 2
100
AcDbBlockReference
  2
block 41
 10
0.0
 20
0.0
 30
0.0
  0
INSERT
  5
13F
330
12A
100
AcDbEntity
  8
Layer 2
100
AcDbBlockReference
  2
block 42
 10
0.0
 20
0.0
 30
0.0
  0
INSERT
  5
153
330
12A
100
AcDbEntity
  8
Layer 2
100
AcDbBlockReference
  2
block 45
 10
0.0
 20
0.0
 30
0.0
  0
INSERT
  5
167
330
12A
100
AcDbEntity
  8
Layer 2
100
AcDbBlockReference
  2
block 48
 10
0.0
 20
0.0
 30
0.0
  0
POLYLINE
  5
17A
330
12A
100
AcDbEntity
  8
Layer 2
  6
AI-Linetype-29
 62
     7
420
 16777215
370
    35
100
AcDb2dPolyline
 66
     1
 10
0.0
 20
0.0
 30
0.0
  0
VERTEX
  5
17B
330
17A
100
AcDbEntity
  8
Layer 2
  6
AI-Linetype-29
 62
     7
420
 16777215
370
    35
100
AcDbVertex
100
AcDb2dVertex
 10
82.25854490131037
 20
184.5983791313678
 30
0.0
  0
VERTEX
  5
17C
330
17A
100
AcDbEntity
  8
Layer 2
  6
AI-Linetype-29
 62
     7
420
 16777215
370
    35
100
AcDbVertex
100
AcDb2dVertex
 10
129.0801486222439
 20
184.5983791313678
 30
0.0
  0
SEQEND
  5
17D
330
17A
100
AcDbEntity
  8
Layer 2
  6
AI-Linetype-29
370
    35
  0
POLYLINE
  5
17F
330
12A
100
AcDbEntity
  8
Layer 2
  6
AI-Linetype-30
 62
     7
420
 16777215
370
    35
100
AcDb2dPolyline
 66
     1
 10
0.0
 20
0.0
 30
0.0
  0
VERTEX
  5
180
330
17F
100
AcDbEntity
  8
Layer 2
  6
AI-Linetype-30
 62
     7
420
 16777215
370
    35
100
AcDbVertex
100
AcDb2dVertex
 10
82.25854490131037
 20
157.2858343790813
 30
0.0
  0
VERTEX
  5
181
330
17F
100
AcDbEntity
  8
Layer 2
  6
AI-Linetype-30
 62
     7
420
 16777215
370
    35
100
AcDbVertex
100
AcDb2dVertex
 10
129.0801486222439
 20
157.2858343790813
 30
0.0
  0
SEQEND
  5
182
330
17F
100
AcDbEntity
  8
Layer 2
  6
AI-Linetype-30
370
    35
  0
ENDBLK
  5
12D
330
12A
100
AcDbEntity
  8
0
100
AcDbBlockEnd
  0
BLOCK
  5
130
330
12E
100
AcDbEntity
  8
0
100
AcDbBlockBegin
  2
block 40
 70
     0
 71
     0
 10
0.0
 20
0.0
 30
0.0
  3
block 40
  1

  0
SPLINE
  5
132
330
12E
100
AcDbEntity
  8
Layer 2
 62
     7
420
 16777215
370
    70
100
AcDbSpline
210
0.0
220
0.0
230
1.0
 70
     8
 71
     3
 72
    44
 73
    40
 74
     0
 42
0.0000000001
 43
0.0000000001
 40
0.0
 40
0.0
 40
0.0
 40
0.0
 40
1.0
 40
1.0
 40
1.0
 40
2.0
 40
2.0
 40
2.0
 40
3.0
 40
3.0
 40
3.0
 40
4.0
 40
4.0
 40
4.0
 40
5.0
 40
5.0
 40
5.0
 40
6.0
 40
6.0
 40
6.0
 40
7.0
 40
7.0
 40
7.0
 40
8.0
 40
8.0
 40
8.0
 40
9.0
 40
9.0
 40
9.0
 40
10.0
 40
10.0
 40
10.0
 40
11.0
 40
11.0
 40
11.0
 40
12.0
 40
12.0
 40
12.0
 40
13.0
 40
13.0
 40
13.0
 40
13.0
 10
74.2500759362986
 20
181.613376148173
 30
0.0
 10
74.47900253129345
 20
181.5250094489764
 30
0.0
 10
74.84487167182698
 20
181.5318996399469
 30
0.0
 10
75.09274629199071
 20
181.5312106208498
 30
0.0
 10
75.3168497533062
 20
182.3857665559661
 30
0.0
 10
74.11847328876205
 20
182.6508666535561
 30
0.0
 10
73.60601533533114
 20
182.1017184332072
 30
0.0
 10
72.96557208462319
 20
181.4154554125454
 30
0.0
 10
73.48560924812166
 20
180.5727850568533
 30
0.0
 10
74.145345033547
 20
180.261520679761
 30
0.0
 10
75.95780976833694
 20
179.406447980322
 30
0.0
 10
77.5423814367776
 20
180.8733696379414
 30
0.0
 10
77.12518037351384
 20
182.5809312152055
 30
0.0
 10
76.6826578584335
 20
184.3901231092844
 30
0.0
 10
74.36634790892577
 20
184.9540852402198
 30
0.0
 10
72.74904783337524
 20
184.0345892552066
 30
0.0
 10
71.08575573309662
 20
183.0895995636026
 30
0.0
 10
70.50422361518645
 20
180.9677652542372
 30
0.0
 10
70.70369464378241
 20
179.2910372815661
 30
0.0
 10
70.90885007992904
 20
177.5659057173273
 30
0.0
 10
72.2624280960837
 20
175.3736192052885
 30
0.0
 10
72.85343422657832
 20
173.7757839192297
 30
0.0
 10
73.71264104059962
 20
171.453617307397
 30
0.0
 10
73.92727048933068
 20
171.6472316736681
 30
0.0
 10
73.60532631623408
 20
169.3250650618354
 30
0.0
 10
73.15040145740684
 20
166.0492960196856
 30
0.0
 10
68.98769258257947
 20
165.6475978861055
 30
0.0
 10
69.63261445741824
 20
160.8098225509434
 30
0.0
 10
70.00313447685686
 20
158.0279079466041
 30
0.0
 10
73.87059866859832
 20
153.9409911724523
 30
0.0
 10
76.72520478767635
 20
157.2326076538342
 30
0.0
 10
77.81351045146677
 20
158.488517212982
 30
0.0
 10
77.50810273669937
 20
160.5612589116826
 30
0.0
 10
75.64585637214756
 20
161.0034369172144
 30
0.0
 10
73.97395153315583
 20
161.4004841718895
 30
0.0
 10
72.1058485062791
 20
159.3544419631996
 30
0.0
 10
73.41756861228797
 20
158.0234293224733
 30
0.0
 10
74.7101684383537
 20
156.7111924521417
 30
0.0
 10
76.3970594427063
 20
159.3937160517314
 30
0.0
 10
74.2500759362986
 20
159.0679822736011
 30
0.0
  0
SPLINE
  5
133
330
12E
100
AcDbEntity
  8
Layer 2
  6
AI-Linetype-21
 62
     7
420
 16777215
370
    35
100
AcDbSpline
210
0.0
220
0.0
230
1.0
 70
     8
 71
     3
 72
    35
 73
    31
 74
     0
 42
0.0000000001
 43
0.0000000001
 40
0.0
 40
0.0
 40
0.0
 40
0.0
 40
1.0
 40
1.0
 40
1.0
 40
2.0
 40
2.0
 40
2.0
 40
3.0
 40
3.0
 40
3.0
 40
4.0
 40
4.0
 40
4.0
 40
5.0
 40
5.0
 40
5.0
 40
6.0
 40
6.0
 40
6.0
 40
7.0
 40
7.0
 40
7.0
 40
8.0
 40
8.0
 40
8.0
 40
9.0
 40
9.0
 40
9.0
 40
10.0
 40
10.0
 40
10.0
 40
10.0
 10
74.89430879204032
 20
181.8069905144441
 30
0.0
 10
74.21304115983216
 20
182.3514878558878
 30
0.0
 10
73.15901419611997
 20
181.7560031012624
 30
0.0
 10
73.71298555014815
 20
180.9364148853215
 30
0.0
 10
74.12898082999206
 20
180.3212930864301
 30
0.0
 10
75.36266952326002
 20
180.4410101545425
 30
0.0
 10
75.88959687772899
 20
180.9121269621504
 30
0.0
 10
77.35565726147706
 20
182.2212632465454
 30
0.0
 10
75.1726725072485
 20
183.6199720135568
 30
0.0
 10
73.71264104059962
 20
183.3572834828065
 30
0.0
 10
69.63760984587185
 20
182.6234781444483
 30
0.0
 10
72.26156682221239
 20
177.3810763445436
 30
0.0
 10
73.2566826531268
 20
175.3970458545882
 30
0.0
 10
74.67089434982186
 20
172.5767184355885
 30
0.0
 10
75.37214353584447
 20
169.7655205196246
 30
0.0
 10
73.74244111654703
 20
166.8845594200844
 30
0.0
 10
72.97056747307681
 20
165.5201293531512
 30
0.0
 10
70.97189532730911
 20
164.1007500132283
 30
0.0
 10
70.4911322523425
 20
162.6486422661955
 30
0.0
 10
70.03293455280426
 20
161.2631971168023
 30
0.0
 10
70.50422361518645
 20
159.2281792136652
 30
0.0
 10
71.45799830027786
 20
158.1005994613429
 30
0.0
 10
72.77523055906315
 20
156.5423827733644
 30
0.0
 10
76.39550914973793
 20
155.6830037045688
 30
0.0
 10
76.72227645651388
 20
158.7782497432916
 30
0.0
 10
77.05248885877508
 20
161.9094970298351
 30
0.0
 10
71.60579289659508
 20
159.7743991028515
 30
0.0
 10
74.2735025855983
 20
157.8232692747803
 30
0.0
 10
74.46918400916049
 20
157.8094888928393
 30
0.0
 10
74.37719995970431
 20
157.9226602795298
 30
0.0
 10
74.4645331302554
 20
158.0037922782074
 30
0.0
  0
SPLINE
  5
135
330
12E
100
AcDbEntity
  8
Layer 2
 62
     7
420
 16777215
370
    25
100
AcDbSpline
210
0.0
220
0.0
230
1.0
 70
     8
 71
     3
 72
    23
 73
    19
 74
     0
 42
0.0000000001
 43
0.0000000001
 40
0.0
 40
0.0
 40
0.0
 40
0.0
 40
1.0
 40
1.0
 40
1.0
 40
2.0
 40
2.0
 40
2.0
 40
3.0
 40
3.0
 40
3.0
 40
4.0
 40
4.0
 40
4.0
 40
5.0
 40
5.0
 40
5.0
 40
6.0
 40
6.0
 40
6.0
 40
6.0
 10
74.8939642824918
 20
184.6128485324058
 30
0.0
 10
73.22567679375956
 20
185.2250420001347
 30
0.0
 10
71.43043753639587
 20
184.4895141140339
 30
0.0
 10
70.4911322523425
 20
183.2582369876056
 30
0.0
 10
69.38336179906041
 20
181.8064737501213
 30
0.0
 10
69.40334335287486
 20
179.5392564112784
 30
0.0
 10
69.95404186619204
 20
177.8396185536304
 30
0.0
 10
70.80670299879138
 20
175.2087713863193
 30
0.0
 10
73.58086613828881
 20
172.9033134875901
 30
0.0
 10
72.85343422657832
 20
170.0990057625968
 30
0.0
 10
72.46844480610164
 20
168.6150308823254
 30
0.0
 10
70.67957897538567
 20
166.9519110368211
 30
0.0
 10
69.93319903850629
 20
165.6503539624937
 30
0.0
 10
69.067446543063
 20
164.14122988518
 30
0.0
 10
68.66643742857993
 20
162.1782144776846
 30
0.0
 10
68.77306313384841
 20
160.4225938184013
 30
0.0
 10
68.92430282565087
 20
157.9168036172048
 30
0.0
 10
71.34999455681528
 20
155.5848184832392
 30
0.0
 10
74.59837508985736
 20
155.5607028148425
 30
0.0
  0
ENDBLK
  5
131
330
12E
100
AcDbEntity
  8
0
100
AcDbBlockEnd
  0
BLOCK
  5
138
330
136
100
AcDbEntity
  8
0
100
AcDbBlockBegin
  2
block 41
 70
     0
 71
     0
 10
0.0
 20
0.0
 30
0.0
  3
block 41
  1

  0
SPLINE
  5
13A
330
136
100
AcDbEntity
  8
Layer 2
 62
     7
420
 16777215
370
    70
100
AcDbSpline
210
0.0
220
0.0
230
1.0
 70
     8
 71
     3
 72
    44
 73
    40
 74
     0
 42
0.0000000001
 43
0.0000000001
 40
0.0
 40
0.0
 40
0.0
 40
0.0
 40
1.0
 40
1.0
 40
1.0
 40
2.0
 40
2.0
 40
2.0
 40
3.0
 40
3.0
 40
3.0
 40
4.0
 40
4.0
 40
4.0
 40
5.0
 40
5.0
 40
5.0
 40
6.0
 40
6.0
 40
6.0
 40
7.0
 40
7.0
 40
7.0
 40
8.0
 40
8.0
 40
8.0
 40
9.0
 40
9.0
 40
9.0
 40
10.0
 40
10.0
 40
10.0
 40
11.0
 40
11.0
 40
11.0
 40
12.0
 40
12.0
 40
12.0
 40
13.0
 40
13.0
 40
13.0
 40
13.0
 10
133.9697726444589
 20
181.6140651672701
 30
0.0
 10
133.7274101770716
 20
181.5256984680734
 30
0.0
 10
133.3394924254325
 20
181.5325886590439
 30
0.0
 10
133.0771484042307
 20
181.5318996399469
 30
0.0
 10
132.839781325297
 20
182.3864555750631
 30
0.0
 10
134.1089545020631
 20
182.6515556726531
 30
0.0
 10
134.6515570409899
 20
182.1024074523043
 30
0.0
 10
135.3298963420356
 20
181.4161444316425
 30
0.0
 10
134.7791978287184
 20
180.5734740759504
 30
0.0
 10
134.0805324643097
 20
180.2620374440838
 30
0.0
 10
132.1610975147028
 20
179.4069647446448
 30
0.0
 10
130.4829915038376
 20
180.8740586570384
 30
0.0
 10
130.9248249998209
 20
182.5816202343025
 30
0.0
 10
131.3935302405891
 20
184.3908121283815
 30
0.0
 10
133.846438226087
 20
184.9547742593169
 30
0.0
 10
135.559167446579
 20
184.0352782743037
 30
0.0
 10
137.3206447681872
 20
183.0902885826997
 30
0.0
 10
137.9364555861756
 20
180.9684542733343
 30
0.0
 10
137.7252712329298
 20
179.2917263006632
 30
0.0
 10
137.5080579625848
 20
177.5665947364243
 30
0.0
 10
136.0742092216238
 20
175.3743082243856
 30
0.0
 10
135.4485798815024
 20
173.7764729383267
 30
0.0
 10
134.538730163848
 20
171.4541340717198
 30
0.0
 10
134.3115261165957
 20
171.6477484379909
 30
0.0
 10
134.652246060087
 20
169.3257540809325
 30
0.0
 10
135.1340426636991
 20
166.0503295483312
 30
0.0
 10
139.5427313561734
 20
165.648631414751
 30
0.0
 10
138.8593966666741
 20
160.810856079589
 30
0.0
 10
138.4670002909041
 20
158.0289414752497
 30
0.0
 10
134.3712985232648
 20
153.9420247010978
 30
0.0
 10
131.3483994897323
 20
157.2334689277055
 30
0.0
 10
130.195842795142
 20
158.4893784868534
 30
0.0
 10
130.519337261207
 20
160.5622924403282
 30
0.0
 10
132.4914821717383
 20
161.00447044586
 30
0.0
 10
134.2620889963824
 20
161.401517700535
 30
0.0
 10
136.2404350787871
 20
159.3554754918452
 30
0.0
 10
134.8510280695859
 20
158.0242905963446
 30
0.0
 10
133.4822916332961
 20
156.7122259807872
 30
0.0
 10
131.6956651146455
 20
159.394749580377
 30
0.0
 10
133.9697726444589
 20
159.0690158022466
 30
0.0
  0
SPLINE
  5
13B
330
136
100
AcDbEntity
  8
Layer 2
  6
AI-Linetype-22
 62
     7
420
 16777215
370
    35
100
AcDbSpline
210
0.0
220
0.0
230
1.0
 70
     8
 71
     3
 72
    35
 73
    31
 74
     0
 42
0.0000000001
 43
0.0000000001
 40
0.0
 40
0.0
 40
0.0
 40
0.0
 40
1.0
 40
1.0
 40
1.0
 40
2.0
 40
2.0
 40
2.0
 40
3.0
 40
3.0
 40
3.0
 40
4.0
 40
4.0
 40
4.0
 40
5.0
 40
5.0
 40
5.0
 40
6.0
 40
6.0
 40
6.0
 40
7.0
 40
7.0
 40
7.0
 40
8.0
 40
8.0
 40
8.0
 40
9.0
 40
9.0
 40
9.0
 40
10.0
 40
10.0
 40
10.0
 40
10.0
 10
133.2874714836052
 20
181.8076795335411
 30
0.0
 10
134.008529968668
 20
182.3521768749849
 30
0.0
 10
135.1252576702117
 20
181.7566921203594
 30
0.0
 10
134.5383856542994
 20
180.9369316496442
 30
0.0
 10
134.0979301965102
 20
180.3219821055272
 30
0.0
 10
132.7913777337292
 20
180.4416991736396
 30
0.0
 10
132.233444519893
 20
180.9128159812475
 30
0.0
 10
130.6805677299167
 20
182.2219522656424
 30
0.0
 10
132.9923990552936
 20
183.6206610326539
 30
0.0
 10
134.538730163848
 20
183.3578002471293
 30
0.0
 10
138.8542290234462
 20
182.6241671635454
 30
0.0
 10
136.0755872598179
 20
177.3817653636407
 30
0.0
 10
135.0215602961057
 20
175.3977348736853
 30
0.0
 10
133.5239772886676
 20
172.5772351999113
 30
0.0
 10
132.7812147020477
 20
169.7660372839474
 30
0.0
 10
134.5070352853837
 20
166.8852484391815
 30
0.0
 10
135.3247286988077
 20
165.5211628817968
 30
0.0
 10
137.4410508553967
 20
164.1016112870996
 30
0.0
 10
137.9502359681166
 20
162.6495035400668
 30
0.0
 10
138.4356499219883
 20
161.2642306454478
 30
0.0
 10
137.9364555861756
 20
159.2292127423108
 30
0.0
 10
136.9265258446746
 20
158.1014607352142
 30
0.0
 10
135.5314344279227
 20
156.54341630201
 30
0.0
 10
131.6975599171624
 20
155.6838649784401
 30
0.0
 10
131.3516723304433
 20
158.7791110171629
 30
0.0
 10
131.0016506291419
 20
161.9103583037065
 30
0.0
 10
136.76994625487
 20
159.7754326314971
 30
0.0
 10
133.9447957021909
 20
157.8241305486516
 30
0.0
 10
133.7374009539789
 20
157.8105224214849
 30
0.0
 10
133.8348971562114
 20
157.9236938081753
 30
0.0
 10
133.7423963424325
 20
158.0046535520787
 30
0.0
  0
SPLINE
  5
13D
330
136
100
AcDbEntity
  8
Layer 2
 62
     7
420
 16777215
370
    25
100
AcDbSpline
210
0.0
220
0.0
230
1.0
 70
     8
 71
     3
 72
    23
 73
    19
 74
     0
 42
0.0000000001
 43
0.0000000001
 40
0.0
 40
0.0
 40
0.0
 40
0.0
 40
1.0
 40
1.0
 40
1.0
 40
2.0
 40
2.0
 40
2.0
 40
3.0
 40
3.0
 40
3.0
 40
4.0
 40
4.0
 40
4.0
 40
5.0
 40
5.0
 40
5.0
 40
6.0
 40
6.0
 40
6.0
 40
6.0
 10
133.2878159931537
 20
184.6135375515029
 30
0.0
 10
135.0544609579899
 20
185.2255587644575
 30
0.0
 10
136.955636901525
 20
184.4900308783567
 30
0.0
 10
137.9502359681166
 20
183.2589260067026
 30
0.0
 10
139.1234632356185
 20
181.8071627692184
 30
0.0
 10
139.1021036436099
 20
179.5399454303754
 30
0.0
 10
138.5190212327314
 20
177.8403075727274
 30
0.0
 10
137.6160617060474
 20
175.2094604054164
 30
0.0
 10
134.6784287857749
 20
172.9040025066872
 30
0.0
 10
135.4485798815024
 20
170.0996947816938
 30
0.0
 10
135.8561346774075
 20
168.6157199014225
 30
0.0
 10
137.7507649395206
 20
166.9526000559181
 30
0.0
 10
138.5412420986112
 20
165.651215236365
 30
0.0
 10
139.4579820072362
 20
164.1422634138256
 30
0.0
 10
139.8825900257932
 20
162.1792480063302
 30
0.0
 10
139.7695908938771
 20
160.4236273470469
 30
0.0
 10
139.6097384633615
 20
157.9176648910762
 30
0.0
 10
137.0407307600107
 20
155.5858520118848
 30
0.0
 10
133.6008029179887
 20
155.5615640887138
 30
0.0
  0
ENDBLK
  5
139
330
136
100
AcDbEntity
  8
0
100
AcDbBlockEnd
  0
BLOCK
  5
140
330
13E
100
AcDbEntity
  8
0
100
AcDbBlockBegin
  2
block 42
 70
     0
 71
     0
 10
0.0
 20
0.0
 30
0.0
  3
block 42
  1

  0
INSERT
  5
143
330
13E
100
AcDbEntity
  8
Layer 2
100
AcDbBlockReference
  2
block 43
 10
0.0
 20
0.0
 30
0.0
  0
INSERT
  5
14B
330
13E
100
AcDbEntity
  8
Layer 2
100
AcDbBlockReference
  2
block 44
 10
0.0
 20
0.0
 30
0.0
  0
ENDBLK
  5
141
330
13E
100
AcDbEntity
  8
0
100
AcDbBlockEnd
  0
BLOCK
  5
144
330
142
100
AcDbEntity
  8
0
100
AcDbBlockBegin
  2
block 43
 70
     0
 71
     0
 10
0.0
 20
0.0
 30
0.0
  3
block 43
  1

  0
SPLINE
  5
146
330
142
100
AcDbEntity
  8
Layer 2
 62
     7
420
 16777215
370
    70
100
AcDbSpline
210
0.0
220
0.0
230
1.0
 70
     8
 71
     3
 72
    41
 73
    37
 74
     0
 42
0.0000000001
 43
0.0000000001
 40
0.0
 40
0.0
 40
0.0
 40
0.0
 40
1.0
 40
1.0
 40
1.0
 40
2.0
 40
2.0
 40
2.0
 40
3.0
 40
3.0
 40
3.0
 40
4.0
 40
4.0
 40
4.0
 40
5.0
 40
5.0
 40
5.0
 40
6.0
 40
6.0
 40
6.0
 40
7.0
 40
7.0
 40
7.0
 40
8.0
 40
8.0
 40
8.0
 40
9.0
 40
9.0
 40
9.0
 40
10.0
 40
10.0
 40
10.0
 40
11.0
 40
11.0
 40
11.0
 40
12.0
 40
12.0
 40
12.0
 40
12.0
 10
101.5385050201883
 20
192.8571342833829
 30
0.0
 10
102.3446573637368
 20
193.5983465770344
 30
0.0
 10
102.5368936918137
 20
191.9624429858636
 30
0.0
 10
101.6248046620938
 20
191.5452419225998
 30
0.0
 10
100.6698241935825
 20
191.1087483246187
 30
0.0
 10
99.94015296980663
 20
191.9462510370829
 30
0.0
 10
99.86418861435688
 20
192.8571342833829
 30
0.0
 10
99.69813501196784
 20
194.8552896648279
 30
0.0
 10
102.4462876805516
 20
195.3248561794674
 30
0.0
 10
103.5480292167345
 20
193.9759290422178
 30
0.0
 10
105.1539604771837
 20
192.0105020678828
 30
0.0
 10
103.468275256251
 20
190.0099351195982
 30
0.0
 10
101.762091717181
 20
189.0894056059395
 30
0.0
 10
99.6762586556365
 20
187.9642374204569
 30
0.0
 10
97.53495955677946
 20
187.4969102178827
 30
0.0
 10
95.16904023228413
 20
187.970266337556
 30
0.0
 10
91.20718042424681
 20
188.7633273182606
 30
0.0
 10
88.53085799653049
 20
191.6618584047755
 30
0.0
 10
84.90437823398224
 20
193.2230034239165
 30
0.0
 10
81.56005179167596
 20
194.6628810819766
 30
0.0
 10
76.37380504818086
 20
194.588294764721
 30
0.0
 10
74.04629853834606
 20
191.3190714039931
 30
0.0
 10
71.71396889483192
 20
188.0433023618434
 30
0.0
 10
75.92249753961313
 20
182.9294026235385
 30
0.0
 10
79.18620874756456
 20
186.1843288380025
 30
0.0
 10
80.70118948720318
 20
187.6951754630589
 30
0.0
 10
79.96238876039135
 20
190.1699598048881
 30
0.0
 10
77.76028372621965
 20
190.1778835245042
 30
0.0
 10
75.38609617255973
 20
190.1864962632173
 30
0.0
 10
75.36353079713135
 20
186.7260701030581
 30
0.0
 10
77.53652477445267
 20
187.2755628329554
 30
0.0
 10
78.1027262174535
 20
187.4188788051418
 30
0.0
 10
78.802597365282
 20
188.3519829173217
 30
0.0
 10
78.09738631945135
 20
188.8155205148621
 30
0.0
 10
77.04112004367376
 20
189.510396274237
 30
0.0
 10
76.72486027812782
 20
187.5167195169229
 30
0.0
 10
77.64866263249756
 20
188.0567382342358
 30
0.0
  0
SPLINE
  5
147
330
142
100
AcDbEntity
  8
Layer 2
 62
     7
420
 16777215
370
    25
100
AcDbSpline
210
0.0
220
0.0
230
1.0
 70
     8
 71
     3
 72
    20
 73
    16
 74
     0
 42
0.0000000001
 43
0.0000000001
 40
0.0
 40
0.0
 40
0.0
 40
0.0
 40
1.0
 40
1.0
 40
1.0
 40
2.0
 40
2.0
 40
2.0
 40
3.0
 40
3.0
 40
3.0
 40
4.0
 40
4.0
 40
4.0
 40
5.0
 40
5.0
 40
5.0
 40
5.0
 10
100.3103284796967
 20
194.0851385691003
 30
0.0
 10
101.7150661638074
 20
195.2258096842665
 30
0.0
 10
103.6598225652309
 20
193.7501030331597
 30
0.0
 10
103.4362358682382
 20
192.1874077210504
 30
0.0
 10
102.878302654402
 20
190.4011257119483
 30
0.0
 10
98.8592542613095
 20
187.4986327656254
 30
0.0
 10
93.27733830133344
 20
189.2847425199531
 30
0.0
 10
90.48663870350681
 20
190.1777112697299
 30
0.0
 10
84.45841062341665
 20
197.2108737028674
 30
0.0
 10
76.64407278899871
 20
194.5316229439886
 30
0.0
 10
73.51609834316612
 20
193.5385741703654
 30
0.0
 10
70.78017576355496
 20
189.4792181600955
 30
0.0
 10
72.84826658335044
 20
186.2706284799081
 30
0.0
 10
73.89678139428622
 20
184.6438543917731
 30
0.0
 10
76.08579506561396
 20
184.149655444414
 30
0.0
 10
78.98828801193696
 20
185.6007296628012
 30
0.0
  0
SPLINE
  5
148
330
142
100
AcDbEntity
  8
Layer 2
  6
AI-Linetype-23
 62
     7
420
 16777215
370
    35
100
AcDbSpline
210
0.0
220
0.0
230
1.0
 70
     8
 71
     3
 72
    23
 73
    19
 74
     0
 42
0.0000000001
 43
0.0000000001
 40
0.0
 40
0.0
 40
0.0
 40
0.0
 40
1.0
 40
1.0
 40
1.0
 40
2.0
 40
2.0
 40
2.0
 40
3.0
 40
3.0
 40
3.0
 40
4.0
 40
4.0
 40
4.0
 40
5.0
 40
5.0
 40
5.0
 40
6.0
 40
6.0
 40
6.0
 40
6.0
 10
77.5368692840012
 20
190.1778835245042
 30
0.0
 10
78.32252330941243
 20
190.2285264281373
 30
0.0
 10
79.19964461995704
 20
189.1879353368176
 30
0.0
 10
79.32332354787751
 20
188.5033948638985
 30
0.0
 10
79.51090899704936
 20
187.462976027353
 30
0.0
 10
78.8503119377527
 20
186.8190876811598
 30
0.0
 10
77.98369816843811
 20
186.3822495736301
 30
0.0
 10
76.21171330559986
 20
185.4894530786276
 30
0.0
 10
74.16791040897539
 20
187.3656520798947
 30
0.0
 10
74.07627086906774
 20
189.0615003325089
 30
0.0
 10
73.82081703883647
 20
193.7867933000776
 30
0.0
 10
81.06843666593082
 20
193.7931667267253
 30
0.0
 10
83.90013290003192
 20
192.5222710022167
 30
0.0
 10
87.49732935095554
 20
190.9073824935058
 30
0.0
 10
91.05990259225239
 20
188.0734469473393
 30
0.0
 10
94.95182696193913
 20
187.1637694844591
 30
0.0
 10
98.18901093465414
 20
186.4072265158982
 30
0.0
 10
103.3835259073138
 20
187.9192789243744
 30
0.0
 10
104.3290323632407
 20
191.5175089039435
 30
0.0
  0
ENDBLK
  5
145
330
142
100
AcDbEntity
  8
0
100
AcDbBlockEnd
  0
BLOCK
  5
14C
330
14A
100
AcDbEntity
  8
0
100
AcDbBlockBegin
  2
block 44
 70
     0
 71
     0
 10
0.0
 20
0.0
 30
0.0
  3
block 44
  1

  0
SPLINE
  5
14E
330
14A
100
AcDbEntity
  8
Layer 2
 62
     7
420
 16777215
370
    70
100
AcDbSpline
210
0.0
220
0.0
230
1.0
 70
     8
 71
     3
 72
    41
 73
    37
 74
     0
 42
0.0000000001
 43
0.0000000001
 40
0.0
 40
0.0
 40
0.0
 40
0.0
 40
1.0
 40
1.0
 40
1.0
 40
2.0
 40
2.0
 40
2.0
 40
3.0
 40
3.0
 40
3.0
 40
4.0
 40
4.0
 40
4.0
 40
5.0
 40
5.0
 40
5.0
 40
6.0
 40
6.0
 40
6.0
 40
7.0
 40
7.0
 40
7.0
 40
8.0
 40
8.0
 40
8.0
 40
9.0
 40
9.0
 40
9.0
 40
10.0
 40
10.0
 40
10.0
 40
11.0
 40
11.0
 40
11.0
 40
12.0
 40
12.0
 40
12.0
 40
12.0
 10
107.2074096411669
 20
192.6083983893479
 30
0.0
 10
106.4034966096839
 20
193.340136670415
 30
0.0
 10
106.2331366379382
 20
191.7021660219529
 30
0.0
 10
107.1374742028163
 20
191.2956447546935
 30
0.0
 10
108.0843586969372
 20
190.8701754622651
 30
0.0
 10
108.7940483668987
 20
191.7162909134425
 30
0.0
 10
108.8577826333758
 20
192.6280354336138
 30
0.0
 10
108.9979980196255
 20
194.6279133628014
 30
0.0
 10
106.2825737581516
 20
195.0652682346538
 30
0.0
 10
105.2121825908845
 20
193.7037664988831
 30
0.0
 10
103.6524156099376
 20
191.7195637541535
 30
0.0
 10
105.3379285760961
 20
189.7388061049091
 30
0.0
 10
107.0311930070964
 20
188.838430399839
 30
0.0
 10
109.1011786294087
 20
187.7375501375274
 30
0.0
 10
111.2175007859977
 20
187.2951998772213
 30
0.0
 10
113.5448350410582
 20
187.7961167607767
 30
0.0
 10
117.4415825444243
 20
188.6353420209835
 30
0.0
 10
120.0460747312732
 20
191.5648789668657
 30
0.0
 10
123.6029635650194
 20
193.168226405701
 30
0.0
 10
126.8833834860743
 20
194.6468613879702
 30
0.0
 10
131.9976277339277
 20
194.632908751255
 30
0.0
 10
134.3313354156359
 20
191.3909016448606
 30
0.0
 10
136.669521721475
 20
188.1428656213671
 30
0.0
 10
132.5803656352577
 20
182.9800455271717
 30
0.0
 10
129.3238891278253
 20
186.1967311817494
 30
0.0
 10
127.8125257384462
 20
187.6898355650567
 30
0.0
 10
128.5118801219519
 20
190.1728881360505
 30
0.0
 10
130.6828070419821
 20
190.206650071806
 30
0.0
 10
133.0235771694351
 20
190.2429958291754
 30
0.0
 10
133.0866224168151
 20
186.7829141785647
 30
0.0
 10
130.9379163626648
 20
187.3072577114197
 30
0.0
 10
130.3775715819889
 20
187.4436834926356
 30
0.0
 10
129.6768391602891
 20
188.3688638851995
 30
0.0
 10
130.3665472764361
 20
188.8404974571302
 30
0.0
 10
131.3997314124626
 20
189.5477755602519
 30
0.0
 10
131.7349392031774
 20
187.5577161531974
 30
0.0
 10
130.8178547850039
 20
188.087055074506
 30
0.0
  0
SPLINE
  5
14F
330
14A
100
AcDbEntity
  8
Layer 2
 62
     7
420
 16777215
370
    25
100
AcDbSpline
210
0.0
220
0.0
230
1.0
 70
     8
 71
     3
 72
    20
 73
    16
 74
     0
 42
0.0000000001
 43
0.0000000001
 40
0.0
 40
0.0
 40
0.0
 40
0.0
 40
1.0
 40
1.0
 40
1.0
 40
2.0
 40
2.0
 40
2.0
 40
3.0
 40
3.0
 40
3.0
 40
4.0
 40
4.0
 40
4.0
 40
5.0
 40
5.0
 40
5.0
 40
5.0
 10
108.4035467936456
 20
193.8505275665547
 30
0.0
 10
107.0046657718599
 20
194.974834478166
 30
0.0
 10
105.1048678665189
 20
193.4765624516309
 30
0.0
 10
105.3439574931953
 20
191.9162787063612
 30
0.0
 10
105.9153265794239
 20
190.1368868882297
 30
0.0
 10
109.9121541066365
 20
187.2815917500546
 30
0.0
 10
115.3943345523146
 20
189.1326415542794
 30
0.0
 10
118.1355970299279
 20
190.0581664563917
 30
0.0
 10
123.9955321955636
 20
197.1610920731056
 30
0.0
 10
131.7320108720149
 20
194.5731363445859
 30
0.0
 10
134.8276014202862
 20
193.6166055831063
 30
0.0
 10
137.573170267256
 20
189.5894612156235
 30
0.0
 10
135.5715697903259
 20
186.3569281218136
 30
0.0
 10
134.5573336794683
 20
184.7180961994802
 30
0.0
 10
132.4050102750585
 20
184.1984035455303
 30
0.0
 10
129.5259439780352
 20
185.6155435733878
 30
0.0
  0
SPLINE
  5
150
330
14A
100
AcDbEntity
  8
Layer 2
  6
AI-Linetype-24
 62
     7
420
 16777215
370
    35
100
AcDbSpline
210
0.0
220
0.0
230
1.0
 70
     8
 71
     3
 72
    23
 73
    19
 74
     0
 42
0.0000000001
 43
0.0000000001
 40
0.0
 40
0.0
 40
0.0
 40
0.0
 40
1.0
 40
1.0
 40
1.0
 40
2.0
 40
2.0
 40
2.0
 40
3.0
 40
3.0
 40
3.0
 40
4.0
 40
4.0
 40
4.0
 40
5.0
 40
5.0
 40
5.0
 40
6.0
 40
6.0
 40
6.0
 40
6.0
 10
130.9032931530381
 20
190.2092338934199
 30
0.0
 10
130.1281466688569
 20
190.2505750392429
 30
0.0
 10
129.2754855362575
 20
189.199993171016
 30
0.0
 10
129.1612806209215
 20
188.5140746599027
 30
0.0
 10
128.9886813371105
 20
187.4715887660661
 30
0.0
 10
129.6477281034388
 20
186.8354518847148
 30
0.0
 10
130.5074516817829
 20
186.4086045540923
 30
0.0
 10
132.2651393983573
 20
185.5364786320013
 30
0.0
 10
134.2577826270258
 20
187.4364487921166
 30
0.0
 10
134.3280625749249
 20
189.1333305733764
 30
0.0
 10
134.5240885080356
 20
193.8613796173333
 30
0.0
 10
127.378615962079
 20
193.7830036950438
 30
0.0
 10
124.6015244914191
 20
192.479207308651
 30
0.0
 10
121.0739189692975
 20
190.8224608897944
 30
0.0
 10
117.5947170387437
 20
187.9471841978049
 30
0.0
 10
113.768421738051
 20
186.9922037292936
 30
0.0
 10
110.5856702740029
 20
186.1979369651693
 30
0.0
 10
105.4462768291072
 20
187.6495279478793
 30
0.0
 10
104.4713148067815
 20
191.2363891123472
 30
0.0
  0
ENDBLK
  5
14D
330
14A
100
AcDbEntity
  8
0
100
AcDbBlockEnd
  0
BLOCK
  5
154
330
152
100
AcDbEntity
  8
0
100
AcDbBlockBegin
  2
block 45
 70
     0
 71
     0
 10
0.0
 20
0.0
 30
0.0
  3
block 45
  1

  0
INSERT
  5
157
330
152
100
AcDbEntity
  8
Layer 2
100
AcDbBlockReference
  2
block 46
 10
0.0
 20
0.0
 30
0.0
  0
INSERT
  5
15F
330
152
100
AcDbEntity
  8
Layer 2
100
AcDbBlockReference
  2
block 47
 10
0.0
 20
0.0
 30
0.0
  0
ENDBLK
  5
155
330
152
100
AcDbEntity
  8
0
100
AcDbBlockEnd
  0
BLOCK
  5
158
330
156
100
AcDbEntity
  8
0
100
AcDbBlockBegin
  2
block 46
 70
     0
 71
     0
 10
0.0
 20
0.0
 30
0.0
  3
block 46
  1

  0
SPLINE
  5
15A
330
156
100
AcDbEntity
  8
Layer 2
 62
     7
420
 16777215
370
    70
100
AcDbSpline
210
0.0
220
0.0
230
1.0
 70
     8
 71
     3
 72
    41
 73
    37
 74
     0
 42
0.0000000001
 43
0.0000000001
 40
0.0
 40
0.0
 40
0.0
 40
0.0
 40
1.0
 40
1.0
 40
1.0
 40
2.0
 40
2.0
 40
2.0
 40
3.0
 40
3.0
 40
3.0
 40
4.0
 40
4.0
 40
4.0
 40
5.0
 40
5.0
 40
5.0
 40
6.0
 40
6.0
 40
6.0
 40
7.0
 40
7.0
 40
7.0
 40
8.0
 40
8.0
 40
8.0
 40
9.0
 40
9.0
 40
9.0
 40
10.0
 40
10.0
 40
10.0
 40
11.0
 40
11.0
 40
11.0
 40
12.0
 40
12.0
 40
12.0
 40
12.0
 10
101.5385050201883
 20
192.8571342833829
 30
0.0
 10
102.3446573637368
 20
193.5983465770344
 30
0.0
 10
102.5368936918137
 20
191.9624429858636
 30
0.0
 10
101.6248046620938
 20
191.5452419225998
 30
0.0
 10
100.6698241935825
 20
191.1087483246187
 30
0.0
 10
99.94015296980663
 20
191.9462510370829
 30
0.0
 10
99.86418861435688
 20
192.8571342833829
 30
0.0
 10
99.69813501196784
 20
194.8552896648279
 30
0.0
 10
102.4462876805516
 20
195.3248561794674
 30
0.0
 10
103.5480292167345
 20
193.9759290422178
 30
0.0
 10
105.1539604771837
 20
192.0105020678828
 30
0.0
 10
103.468275256251
 20
190.0099351195982
 30
0.0
 10
101.762091717181
 20
189.0894056059395
 30
0.0
 10
99.6762586556365
 20
187.9642374204569
 30
0.0
 10
97.53495955677946
 20
187.4969102178827
 30
0.0
 10
95.16904023228413
 20
187.970266337556
 30
0.0
 10
91.20718042424681
 20
188.7633273182606
 30
0.0
 10
88.53085799653049
 20
191.6618584047755
 30
0.0
 10
84.90437823398224
 20
193.2230034239165
 30
0.0
 10
81.56005179167596
 20
194.6628810819766
 30
0.0
 10
76.37380504818086
 20
194.588294764721
 30
0.0
 10
74.04629853834606
 20
191.3190714039931
 30
0.0
 10
71.71396889483192
 20
188.0433023618434
 30
0.0
 10
75.92249753961313
 20
182.9294026235385
 30
0.0
 10
79.18620874756456
 20
186.1843288380025
 30
0.0
 10
80.70118948720318
 20
187.6951754630589
 30
0.0
 10
79.96238876039135
 20
190.1699598048881
 30
0.0
 10
77.76028372621965
 20
190.1778835245042
 30
0.0
 10
75.38609617255973
 20
190.1864962632173
 30
0.0
 10
75.36353079713135
 20
186.7260701030581
 30
0.0
 10
77.53652477445267
 20
187.2755628329554
 30
0.0
 10
78.1027262174535
 20
187.4188788051418
 30
0.0
 10
78.802597365282
 20
188.3519829173217
 30
0.0
 10
78.09738631945135
 20
188.8155205148621
 30
0.0
 10
77.04112004367376
 20
189.510396274237
 30
0.0
 10
76.72486027812782
 20
187.5167195169229
 30
0.0
 10
77.64866263249756
 20
188.0567382342358
 30
0.0
  0
SPLINE
  5
15B
330
156
100
AcDbEntity
  8
Layer 2
 62
     7
420
 16777215
370
    25
100
AcDbSpline
210
0.0
220
0.0
230
1.0
 70
     8
 71
     3
 72
    20
 73
    16
 74
     0
 42
0.0000000001
 43
0.0000000001
 40
0.0
 40
0.0
 40
0.0
 40
0.0
 40
1.0
 40
1.0
 40
1.0
 40
2.0
 40
2.0
 40
2.0
 40
3.0
 40
3.0
 40
3.0
 40
4.0
 40
4.0
 40
4.0
 40
5.0
 40
5.0
 40
5.0
 40
5.0
 10
100.3103284796967
 20
194.0851385691003
 30
0.0
 10
101.7150661638074
 20
195.2258096842665
 30
0.0
 10
103.6598225652309
 20
193.7501030331597
 30
0.0
 10
103.4362358682382
 20
192.1874077210504
 30
0.0
 10
102.878302654402
 20
190.4011257119483
 30
0.0
 10
98.8592542613095
 20
187.4986327656254
 30
0.0
 10
93.27733830133344
 20
189.2847425199531
 30
0.0
 10
90.48663870350681
 20
190.1777112697299
 30
0.0
 10
84.45841062341665
 20
197.2108737028674
 30
0.0
 10
76.64407278899871
 20
194.5316229439886
 30
0.0
 10
73.51609834316612
 20
193.5385741703654
 30
0.0
 10
70.78017576355496
 20
189.4792181600955
 30
0.0
 10
72.84826658335044
 20
186.2706284799081
 30
0.0
 10
73.89678139428622
 20
184.6438543917731
 30
0.0
 10
76.08579506561396
 20
184.149655444414
 30
0.0
 10
78.98828801193696
 20
185.6007296628012
 30
0.0
  0
SPLINE
  5
15C
330
156
100
AcDbEntity
  8
Layer 2
  6
AI-Linetype-25
 62
     7
420
 16777215
370
    35
100
AcDbSpline
210
0.0
220
0.0
230
1.0
 70
     8
 71
     3
 72
    23
 73
    19
 74
     0
 42
0.0000000001
 43
0.0000000001
 40
0.0
 40
0.0
 40
0.0
 40
0.0
 40
1.0
 40
1.0
 40
1.0
 40
2.0
 40
2.0
 40
2.0
 40
3.0
 40
3.0
 40
3.0
 40
4.0
 40
4.0
 40
4.0
 40
5.0
 40
5.0
 40
5.0
 40
6.0
 40
6.0
 40
6.0
 40
6.0
 10
77.5368692840012
 20
190.1778835245042
 30
0.0
 10
78.32252330941243
 20
190.2285264281373
 30
0.0
 10
79.19964461995704
 20
189.1879353368176
 30
0.0
 10
79.32332354787751
 20
188.5033948638985
 30
0.0
 10
79.51090899704936
 20
187.462976027353
 30
0.0
 10
78.8503119377527
 20
186.8190876811598
 30
0.0
 10
77.98369816843811
 20
186.3822495736301
 30
0.0
 10
76.21171330559986
 20
185.4894530786276
 30
0.0
 10
74.16791040897539
 20
187.3656520798947
 30
0.0
 10
74.07627086906774
 20
189.0615003325089
 30
0.0
 10
73.82081703883647
 20
193.7867933000776
 30
0.0
 10
81.06843666593082
 20
193.7931667267253
 30
0.0
 10
83.90013290003192
 20
192.5222710022167
 30
0.0
 10
87.49732935095554
 20
190.9073824935058
 30
0.0
 10
91.05990259225239
 20
188.0734469473393
 30
0.0
 10
94.95182696193913
 20
187.1637694844591
 30
0.0
 10
98.18901093465414
 20
186.4072265158982
 30
0.0
 10
103.3835259073138
 20
187.9192789243744
 30
0.0
 10
104.3290323632407
 20
191.5175089039435
 30
0.0
  0
ENDBLK
  5
159
330
156
100
AcDbEntity
  8
0
100
AcDbBlockEnd
  0
BLOCK
  5
160
330
15E
100
AcDbEntity
  8
0
100
AcDbBlockBegin
  2
block 47
 70
     0
 71
     0
 10
0.0
 20
0.0
 30
0.0
  3
block 47
  1

  0
SPLINE
  5
162
330
15E
100
AcDbEntity
  8
Layer 2
 62
     7
420
 16777215
370
    70
100
AcDbSpline
210
0.0
220
0.0
230
1.0
 70
     8
 71
     3
 72
    41
 73
    37
 74
     0
 42
0.0000000001
 43
0.0000000001
 40
0.0
 40
0.0
 40
0.0
 40
0.0
 40
1.0
 40
1.0
 40
1.0
 40
2.0
 40
2.0
 40
2.0
 40
3.0
 40
3.0
 40
3.0
 40
4.0
 40
4.0
 40
4.0
 40
5.0
 40
5.0
 40
5.0
 40
6.0
 40
6.0
 40
6.0
 40
7.0
 40
7.0
 40
7.0
 40
8.0
 40
8.0
 40
8.0
 40
9.0
 40
9.0
 40
9.0
 40
10.0
 40
10.0
 40
10.0
 40
11.0
 40
11.0
 40
11.0
 40
12.0
 40
12.0
 40
12.0
 40
12.0
 10
107.2074096411669
 20
192.6083983893479
 30
0.0
 10
106.4034966096839
 20
193.340136670415
 30
0.0
 10
106.2331366379382
 20
191.7021660219529
 30
0.0
 10
107.1374742028163
 20
191.2956447546935
 30
0.0
 10
108.0843586969372
 20
190.8701754622651
 30
0.0
 10
108.7940483668987
 20
191.7162909134425
 30
0.0
 10
108.8577826333758
 20
192.6280354336138
 30
0.0
 10
108.9979980196255
 20
194.6279133628014
 30
0.0
 10
106.2825737581516
 20
195.0652682346538
 30
0.0
 10
105.2121825908845
 20
193.7037664988831
 30
0.0
 10
103.6524156099376
 20
191.7195637541535
 30
0.0
 10
105.3379285760961
 20
189.7388061049091
 30
0.0
 10
107.0311930070964
 20
188.838430399839
 30
0.0
 10
109.1011786294087
 20
187.7375501375274
 30
0.0
 10
111.2175007859977
 20
187.2951998772213
 30
0.0
 10
113.5448350410582
 20
187.7961167607767
 30
0.0
 10
117.4415825444243
 20
188.6353420209835
 30
0.0
 10
120.0460747312732
 20
191.5648789668657
 30
0.0
 10
123.6029635650194
 20
193.168226405701
 30
0.0
 10
126.8833834860743
 20
194.6468613879702
 30
0.0
 10
131.9976277339277
 20
194.632908751255
 30
0.0
 10
134.3313354156359
 20
191.3909016448606
 30
0.0
 10
136.669521721475
 20
188.1428656213671
 30
0.0
 10
132.5803656352577
 20
182.9800455271717
 30
0.0
 10
129.3238891278253
 20
186.1967311817494
 30
0.0
 10
127.8125257384462
 20
187.6898355650567
 30
0.0
 10
128.5118801219519
 20
190.1728881360505
 30
0.0
 10
130.6828070419821
 20
190.206650071806
 30
0.0
 10
133.0235771694351
 20
190.2429958291754
 30
0.0
 10
133.0866224168151
 20
186.7829141785647
 30
0.0
 10
130.9379163626648
 20
187.3072577114197
 30
0.0
 10
130.3775715819889
 20
187.4436834926356
 30
0.0
 10
129.6768391602891
 20
188.3688638851995
 30
0.0
 10
130.3665472764361
 20
188.8404974571302
 30
0.0
 10
131.3997314124626
 20
189.5477755602519
 30
0.0
 10
131.7349392031774
 20
187.5577161531974
 30
0.0
 10
130.8178547850039
 20
188.087055074506
 30
0.0
  0
SPLINE
  5
163
330
15E
100
AcDbEntity
  8
Layer 2
 62
     7
420
 16777215
370
    25
100
AcDbSpline
210
0.0
220
0.0
230
1.0
 70
     8
 71
     3
 72
    20
 73
    16
 74
     0
 42
0.0000000001
 43
0.0000000001
 40
0.0
 40
0.0
 40
0.0
 40
0.0
 40
1.0
 40
1.0
 40
1.0
 40
2.0
 40
2.0
 40
2.0
 40
3.0
 40
3.0
 40
3.0
 40
4.0
 40
4.0
 40
4.0
 40
5.0
 40
5.0
 40
5.0
 40
5.0
 10
108.4035467936456
 20
193.8505275665547
 30
0.0
 10
107.0046657718599
 20
194.974834478166
 30
0.0
 10
105.1048678665189
 20
193.4765624516309
 30
0.0
 10
105.3439574931953
 20
191.9162787063612
 30
0.0
 10
105.9153265794239
 20
190.1368868882297
 30
0.0
 10
109.9121541066365
 20
187.2815917500546
 30
0.0
 10
115.3943345523146
 20
189.1326415542794
 30
0.0
 10
118.1355970299279
 20
190.0581664563917
 30
0.0
 10
123.9955321955636
 20
197.1610920731056
 30
0.0
 10
131.7320108720149
 20
194.5731363445859
 30
0.0
 10
134.8276014202862
 20
193.6166055831063
 30
0.0
 10
137.573170267256
 20
189.5894612156235
 30
0.0
 10
135.5715697903259
 20
186.3569281218136
 30
0.0
 10
134.5573336794683
 20
184.7180961994802
 30
0.0
 10
132.4050102750585
 20
184.1984035455303
 30
0.0
 10
129.5259439780352
 20
185.6155435733878
 30
0.0
  0
SPLINE
  5
164
330
15E
100
AcDbEntity
  8
Layer 2
  6
AI-Linetype-26
 62
     7
420
 16777215
370
    35
100
AcDbSpline
210
0.0
220
0.0
230
1.0
 70
     8
 71
     3
 72
    23
 73
    19
 74
     0
 42
0.0000000001
 43
0.0000000001
 40
0.0
 40
0.0
 40
0.0
 40
0.0
 40
1.0
 40
1.0
 40
1.0
 40
2.0
 40
2.0
 40
2.0
 40
3.0
 40
3.0
 40
3.0
 40
4.0
 40
4.0
 40
4.0
 40
5.0
 40
5.0
 40
5.0
 40
6.0
 40
6.0
 40
6.0
 40
6.0
 10
130.9032931530381
 20
190.2092338934199
 30
0.0
 10
130.1281466688569
 20
190.2505750392429
 30
0.0
 10
129.2754855362575
 20
189.199993171016
 30
0.0
 10
129.1612806209215
 20
188.5140746599027
 30
0.0
 10
128.9886813371105
 20
187.4715887660661
 30
0.0
 10
129.6477281034388
 20
186.8354518847148
 30
0.0
 10
130.5074516817829
 20
186.4086045540923
 30
0.0
 10
132.2651393983573
 20
185.5364786320013
 30
0.0
 10
134.2577826270258
 20
187.4364487921166
 30
0.0
 10
134.3280625749249
 20
189.1333305733764
 30
0.0
 10
134.5240885080356
 20
193.8613796173333
 30
0.0
 10
127.378615962079
 20
193.7830036950438
 30
0.0
 10
124.6015244914191
 20
192.479207308651
 30
0.0
 10
121.0739189692975
 20
190.8224608897944
 30
0.0
 10
117.5947170387437
 20
187.9471841978049
 30
0.0
 10
113.768421738051
 20
186.9922037292936
 30
0.0
 10
110.5856702740029
 20
186.1979369651693
 30
0.0
 10
105.4462768291072
 20
187.6495279478793
 30
0.0
 10
104.4713148067815
 20
191.2363891123472
 30
0.0
  0
ENDBLK
  5
161
330
15E
100
AcDbEntity
  8
0
100
AcDbBlockEnd
  0
BLOCK
  5
168
330
166
100
AcDbEntity
  8
0
100
AcDbBlockBegin
  2
block 48
 70
     0
 71
     0
 10
0.0
 20
0.0
 30
0.0
  3
block 48
  1

  0
INSERT
  5
16B
330
166
100
AcDbEntity
  8
Layer 2
100
AcDbBlockReference
  2
block 49
 10
0.0
 20
0.0
 30
0.0
  0
INSERT
  5
173
330
166
100
AcDbEntity
  8
Layer 2
100
AcDbBlockReference
  2
block 50
 10
0.0
 20
0.0
 30
0.0
  0
ENDBLK
  5
169
330
166
100
AcDbEntity
  8
0
100
AcDbBlockEnd
  0
BLOCK
  5
16C
330
16A
100
AcDbEntity
  8
0
100
AcDbBlockBegin
  2
block 49
 70
     0
 71
     0
 10
0.0
 20
0.0
 30
0.0
  3
block 49
  1

  0
SPLINE
  5
16E
330
16A
100
AcDbEntity
  8
Layer 2
 62
     7
420
 16777215
370
    70
100
AcDbSpline
210
0.0
220
0.0
230
1.0
 70
     8
 71
     3
 72
    41
 73
    37
 74
     0
 42
0.0000000001
 43
0.0000000001
 40
0.0
 40
0.0
 40
0.0
 40
0.0
 40
1.0
 40
1.0
 40
1.0
 40
2.0
 40
2.0
 40
2.0
 40
3.0
 40
3.0
 40
3.0
 40
4.0
 40
4.0
 40
4.0
 40
5.0
 40
5.0
 40
5.0
 40
6.0
 40
6.0
 40
6.0
 40
7.0
 40
7.0
 40
7.0
 40
8.0
 40
8.0
 40
8.0
 40
9.0
 40
9.0
 40
9.0
 40
10.0
 40
10.0
 40
10.0
 40
11.0
 40
11.0
 40
11.0
 40
12.0
 40
12.0
 40
12.0
 40
12.0
 10
101.5359211985744
 20
149.2792602165864
 30
0.0
 10
102.3420735421228
 20
148.5754272089499
 30
0.0
 10
102.5343098701998
 20
150.1293375275718
 30
0.0
 10
101.6222208404799
 20
150.5256957631498
 30
0.0
 10
100.6672403719686
 20
150.9399684952511
 30
0.0
 10
99.9375691481927
 20
150.1446682024812
 30
0.0
 10
99.86160479274294
 20
149.2792602165864
 30
0.0
 10
99.6955511903539
 20
147.3813571137623
 30
0.0
 10
102.4437038589377
 20
146.935561757971
 30
0.0
 10
103.5454453951206
 20
148.2169650237097
 30
0.0
 10
105.1512044007955
 20
150.083517757618
 30
0.0
 10
103.4656914346371
 20
151.9840046820561
 30
0.0
 10
101.7595078955671
 20
152.8581976614382
 30
0.0
 10
99.6735025792483
 20
153.927038535737
 30
0.0
 10
97.53237573516552
 20
154.3707668342372
 30
0.0
 10
95.1664564106702
 20
153.9211818734121
 30
0.0
 10
91.20442434785862
 20
153.1682562551107
 30
0.0
 10
88.52827417491655
 20
150.4147636885248
 30
0.0
 10
84.9017944123683
 20
148.931822336899
 30
0.0
 10
81.55729571528776
 20
147.5644639388033
 30
0.0
 10
76.37122122656692
 20
147.6350883962509
 30
0.0
 10
74.04354246195787
 20
150.7404974666552
 30
0.0
 10
71.711385073218
 20
153.8517631993843
 30
0.0
 10
75.9199137179992
 20
158.7095200883608
 30
0.0
 10
79.18362492595062
 20
155.6178913998976
 30
0.0
 10
80.69860566558924
 20
154.1828368755168
 30
0.0
 10
79.95963268400315
 20
151.8319037163823
 30
0.0
 10
77.75769990460572
 20
151.8239799967662
 30
0.0
 10
75.3835123509458
 20
151.8162285319244
 30
0.0
 10
75.36094697551741
 20
155.103021879627
 30
0.0
 10
77.53394095283873
 20
154.5810899136117
 30
0.0
 10
78.10014239583955
 20
154.4450086419443
 30
0.0
 10
78.80001354366806
 20
153.5587578283638
 30
0.0
 10
78.09480249783742
 20
153.1184746253489
 30
0.0
 10
77.03853622205982
 20
152.4585665851492
 30
0.0
 10
76.72227645651388
 20
154.3521633186168
 30
0.0
 10
77.64607881088362
 20
153.8390163460889
 30
0.0
  0
SPLINE
  5
16F
330
16A
100
AcDbEntity
  8
Layer 2
 62
     7
420
 16777215
370
    25
100
AcDbSpline
210
0.0
220
0.0
230
1.0
 70
     8
 71
     3
 72
    20
 73
    16
 74
     0
 42
0.0000000001
 43
0.0000000001
 40
0.0
 40
0.0
 40
0.0
 40
0.0
 40
1.0
 40
1.0
 40
1.0
 40
2.0
 40
2.0
 40
2.0
 40
3.0
 40
3.0
 40
3.0
 40
4.0
 40
4.0
 40
4.0
 40
5.0
 40
5.0
 40
5.0
 40
5.0
 10
100.3077446580828
 20
148.1129231400551
 30
0.0
 10
101.7124823421934
 20
147.029440609944
 30
0.0
 10
103.6572387436169
 20
148.4312499628922
 30
0.0
 10
103.43347979185
 20
149.9153970979378
 30
0.0
 10
102.875718832788
 20
151.6124511339719
 30
0.0
 10
98.85667043969556
 20
154.3692165412688
 30
0.0
 10
93.2747544797195
 20
152.6726792695575
 30
0.0
 10
90.48405488189287
 20
151.8243245063148
 30
0.0
 10
84.45565454702844
 20
145.1435953413183
 30
0.0
 10
76.64148896738477
 20
147.6888318858209
 30
0.0
 10
73.51351452155218
 20
148.631926774908
 30
0.0
 10
70.77759194194103
 20
152.4880221515481
 30
0.0
 10
72.8456827617365
 20
155.5357258725744
 30
0.0
 10
73.89419757267228
 20
157.0811957072575
 30
0.0
 10
76.08321124400004
 20
157.5500732028
 30
0.0
 10
78.98570419032302
 20
156.1722072634743
 30
0.0
  0
SPLINE
  5
170
330
16A
100
AcDbEntity
  8
Layer 2
  6
AI-Linetype-27
 62
     7
420
 16777215
370
    35
100
AcDbSpline
210
0.0
220
0.0
230
1.0
 70
     8
 71
     3
 72
    23
 73
    19
 74
     0
 42
0.0000000001
 43
0.0000000001
 40
0.0
 40
0.0
 40
0.0
 40
0.0
 40
1.0
 40
1.0
 40
1.0
 40
2.0
 40
2.0
 40
2.0
 40
3.0
 40
3.0
 40
3.0
 40
4.0
 40
4.0
 40
4.0
 40
5.0
 40
5.0
 40
5.0
 40
6.0
 40
6.0
 40
6.0
 40
6.0
 10
77.53428546238726
 20
151.8239799967662
 30
0.0
 10
78.3199394877985
 20
151.7762654242955
 30
0.0
 10
79.1970607983431
 20
152.7650078285622
 30
0.0
 10
79.32056747148931
 20
153.4149250918546
 30
0.0
 10
79.50832517543542
 20
154.4031507317985
 30
0.0
 10
78.84772811613877
 20
155.0148274352046
 30
0.0
 10
77.98111434682417
 20
155.429789186403
 30
0.0
 10
76.20895722921165
 20
156.2777994400972
 30
0.0
 10
74.16532658736145
 20
154.4958238003518
 30
0.0
 10
74.0736870474538
 20
152.8847248966747
 30
0.0
 10
73.81823321722253
 20
148.3964544984912
 30
0.0
 10
81.06585284431688
 20
148.3902533266177
 30
0.0
 10
83.89737682364371
 20
149.5974147846493
 30
0.0
 10
87.4947455293416
 20
151.1313435494567
 30
0.0
 10
91.05731877063845
 20
153.823341161631
 30
0.0
 10
94.9492431403252
 20
154.6870265997831
 30
0.0
 10
98.18642711304021
 20
155.4060180275548
 30
0.0
 10
103.3809420856999
 20
153.9695854649798
 30
0.0
 10
104.3264485416267
 20
150.5518784888377
 30
0.0
  0
ENDBLK
  5
16D
330
16A
100
AcDbEntity
  8
0
100
AcDbBlockEnd
  0
BLOCK
  5
174
330
172
100
AcDbEntity
  8
0
100
AcDbBlockBegin
  2
block 50
 70
     0
 71
     0
 10
0.0
 20
0.0
 30
0.0
  3
block 50
  1

  0
SPLINE
  5
176
330
172
100
AcDbEntity
  8
Layer 2
 62
     7
420
 16777215
370
    70
100
AcDbSpline
210
0.0
220
0.0
230
1.0
 70
     8
 71
     3
 72
    41
 73
    37
 74
     0
 42
0.0000000001
 43
0.0000000001
 40
0.0
 40
0.0
 40
0.0
 40
0.0
 40
1.0
 40
1.0
 40
1.0
 40
2.0
 40
2.0
 40
2.0
 40
3.0
 40
3.0
 40
3.0
 40
4.0
 40
4.0
 40
4.0
 40
5.0
 40
5.0
 40
5.0
 40
6.0
 40
6.0
 40
6.0
 40
7.0
 40
7.0
 40
7.0
 40
8.0
 40
8.0
 40
8.0
 40
9.0
 40
9.0
 40
9.0
 40
10.0
 40
10.0
 40
10.0
 40
11.0
 40
11.0
 40
11.0
 40
12.0
 40
12.0
 40
12.0
 40
12.0
 10
107.204825819553
 20
149.5157660216488
 30
0.0
 10
106.4009127880699
 20
148.8207180074997
 30
0.0
 10
106.2305528163243
 20
150.3765231286385
 30
0.0
 10
107.1348903812024
 20
150.762718332535
 30
0.0
 10
108.081602620549
 20
151.1666557781806
 30
0.0
 10
108.7912922905105
 20
150.363087256246
 30
0.0
 10
108.8551988117619
 20
149.4969902512542
 30
0.0
 10
108.9954141980116
 20
147.5971923459132
 30
0.0
 10
106.2799899365376
 20
147.1818860851664
 30
0.0
 10
105.2094265144963
 20
148.4753471851034
 30
0.0
 10
103.6498317883237
 20
150.3598144155351
 30
0.0
 10
105.3353447544821
 20
152.2413533148043
 30
0.0
 10
107.0286091854824
 20
153.0965982690175
 30
0.0
 10
109.0984225530205
 20
154.1421847487908
 30
0.0
 10
111.2149169643838
 20
154.5624863979913
 30
0.0
 10
113.5422512194443
 20
154.0865464567041
 30
0.0
 10
117.4389987228104
 20
153.2895236161915
 30
0.0
 10
120.043318654885
 20
150.5069199927552
 30
0.0
 10
123.6003797434055
 20
148.9841877882748
 30
0.0
 10
126.8807996644604
 20
147.5792778493899
 30
0.0
 10
131.9948716575395
 20
147.5925414670081
 30
0.0
 10
134.328751594022
 20
150.6721123212729
 30
0.0
 10
136.666937899861
 20
153.7571953283142
 30
0.0
 10
132.5777818136438
 20
158.6611164967931
 30
0.0
 10
129.3213053062113
 20
155.6061780752478
 30
0.0
 10
127.8099419168322
 20
154.1876600091962
 30
0.0
 10
128.5091240455637
 20
151.8293198947684
 30
0.0
 10
130.6802232203681
 20
151.796935997207
 30
0.0
 10
133.0209933478211
 20
151.7624850423545
 30
0.0
 10
133.0840385952012
 20
155.0491061352829
 30
0.0
 10
130.9353325410509
 20
154.55111758289
 30
0.0
 10
130.374987760375
 20
154.4212374830961
 30
0.0
 10
129.6740830839009
 20
153.5427381343574
 30
0.0
 10
130.3639634548222
 20
153.0947034665006
 30
0.0
 10
131.3971475908486
 20
152.4232543564254
 30
0.0
 10
131.7323553815635
 20
154.3132337396335
 30
0.0
 10
130.8152709633899
 20
153.8105943083356
 30
0.0
  0
SPLINE
  5
177
330
172
100
AcDbEntity
  8
Layer 2
 62
     7
420
 16777215
370
    25
100
AcDbSpline
210
0.0
220
0.0
230
1.0
 70
     8
 71
     3
 72
    20
 73
    16
 74
     0
 42
0.0000000001
 43
0.0000000001
 40
0.0
 40
0.0
 40
0.0
 40
0.0
 40
1.0
 40
1.0
 40
1.0
 40
2.0
 40
2.0
 40
2.0
 40
3.0
 40
3.0
 40
3.0
 40
4.0
 40
4.0
 40
4.0
 40
5.0
 40
5.0
 40
5.0
 40
5.0
 10
108.4009629720317
 20
148.3356485631765
 30
0.0
 10
107.002081950246
 20
147.2681857270719
 30
0.0
 10
105.102284044905
 20
148.6908379077058
 30
0.0
 10
105.3412014168071
 20
150.1730902402345
 30
0.0
 10
105.9125705030358
 20
151.8632540852981
 30
0.0
 10
109.9095702850226
 20
154.5752332512868
 30
0.0
 10
115.3917507307007
 20
152.8170287703895
 30
0.0
 10
118.133013208314
 20
151.9378404025537
 30
0.0
 10
123.9929483739497
 20
145.191309913789
 30
0.0
 10
131.729427050401
 20
147.649557797289
 30
0.0
 10
134.8250175986722
 20
148.5576849672009
 30
0.0
 10
137.5705864456421
 20
152.3832912487966
 30
0.0
 10
135.5689859687119
 20
155.454077109574
 30
0.0
 10
134.5547498578544
 20
157.0103989950356
 30
0.0
 10
132.4024264534445
 20
157.5042534328462
 30
0.0
 10
129.5233601564213
 20
156.1579101172105
 30
0.0
  0
SPLINE
  5
178
330
172
100
AcDbEntity
  8
Layer 2
  6
AI-Linetype-28
 62
     7
420
 16777215
370
    35
100
AcDbSpline
210
0.0
220
0.0
230
1.0
 70
     8
 71
     3
 72
    23
 73
    19
 74
     0
 42
0.0000000001
 43
0.0000000001
 40
0.0
 40
0.0
 40
0.0
 40
0.0
 40
1.0
 40
1.0
 40
1.0
 40
2.0
 40
2.0
 40
2.0
 40
3.0
 40
3.0
 40
3.0
 40
4.0
 40
4.0
 40
4.0
 40
5.0
 40
5.0
 40
5.0
 40
6.0
 40
6.0
 40
6.0
 40
6.0
 10
130.9005370766499
 20
151.7943521755931
 30
0.0
 10
130.1255628472429
 20
151.7554225966098
 30
0.0
 10
129.2729017146436
 20
152.7529499943639
 30
0.0
 10
129.1586967993076
 20
153.4047620601731
 30
0.0
 10
128.9860975154965
 20
154.3953992669567
 30
0.0
 10
129.6449720270506
 20
154.9991522507468
 30
0.0
 10
130.5048678601689
 20
155.4049844989092
 30
0.0
 10
132.2623833219691
 20
156.233013198789
 30
0.0
 10
134.2551988054119
 20
154.4284721836151
 30
0.0
 10
134.325478753311
 20
152.8163397512924
 30
0.0
 10
134.5215046864217
 20
148.325485531495
 30
0.0
 10
127.3758598856908
 20
148.4000718487507
 30
0.0
 10
124.5989406698051
 20
149.6384114209237
 30
0.0
 10
121.0713351476836
 20
151.2121310385859
 30
0.0
 10
117.5921332171298
 20
153.9430582297434
 30
0.0
 10
113.765837916437
 20
154.8503241257839
 30
0.0
 10
110.5829141976147
 20
155.6048000370537
 30
0.0
 10
105.4436930074933
 20
154.2262450786309
 30
0.0
 10
104.4687309851675
 20
150.8190456437189
 30
0.0
  0
ENDBLK
  5
175
330
172
100
AcDbEntity
  8
0
100
AcDbBlockEnd
  0
ENDSEC
  0
SECTION
  2
ENTITIES
  0
INSERT
  5
3D
330
1F
100
AcDbEntity
  8
Layer 2
100
AcDbBlockReference
  2
block 2
 10
0.0
 20
0.0
 30
0.0
  0
ENDSEC
  0
SECTION
  2
OBJECTS
  0
DICTIONARY
  5
C
330
0
100
AcDbDictionary
281
     1
  3
ACAD_GROUP
350
D
  3
ACAD_LAYOUT
350
1A
  3
ACAD_MLINESTYLE
350
17
  3
ACAD_PLOTSETTINGS
350
19
  3
ACAD_PLOTSTYLENAME
350
E
  3
ACAD_TABLESTYLE
350
18B
  3
ACAD_VISUALSTYLE
350
2A
  0
DICTIONARY
  5
D
102
{ACAD_REACTORS
330
C
102
}
330
C
100
AcDbDictionary
281
     1
  0
DICTIONARY
  5
1A
102
{ACAD_REACTORS
330
C
102
}
330
C
100
AcDbDictionary
281
     1
  3
Layout1
350
1E
  3
Layout2
350
26
  3
Model
350
22
  0
DICTIONARY
  5
17
102
{ACAD_REACTORS
330
C
102
}
330
C
100
AcDbDictionary
281
     1
  3
Standard
350
18
  0
DICTIONARY
  5
19
102
{ACAD_REACTORS
330
C
102
}
330
C
100
AcDbDictionary
281
     1
  0
ACDBDICTIONARYWDFLT
  5
E
102
{ACAD_REACTORS
330
C
102
}
330
C
100
AcDbDictionary
281
     1
  3
Normal
350
F
100
AcDbDictionaryWithDefault
340
F
  0
DICTIONARY
  5
18B
102
{ACAD_REACTORS
330
C
102
}
330
C
100
AcDbDictionary
281
     1
  0
DICTIONARY
  5
2A
102
{ACAD_REACTORS
330
C
102
}
330
C
100
AcDbDictionary
281
     1
  3
2dWireframe
350
2F
  3
3D Hidden
350
31
  3
3dWireframe
350
30
  3
Basic
350
32
  3
Brighten
350
36
  3
ColorChange
350
3A
  3
Conceptual
350
34
  3
Dim
350
35
  3
Facepattern
350
39
  3
Flat
350
2B
  3
FlatWithEdges
350
2C
  3
Gouraud
350
2D
  3
GouraudWithEdges
350
2E
  3
Linepattern
350
38
  3
Realistic
350
33
  3
Thicken
350
37
  0
LAYOUT
  5
1E
102
{ACAD_REACTORS
330
1A
102
}
330
1A
100
AcDbPlotSettings
  1

  2
none_device
  4

  6

 40
0.0
 41
0.0
 42
0.0
 43
0.0
 44
0.0
 45
0.0
 46
0.0
 47
0.0
 48
0.0
 49
0.0
140
0.0
141
0.0
142
1.0
143
1.0
 70
   688
 72
     0
 73
     0
 74
     5
  7

 75
    16
 76
     0
 77
     2
 78
   300
147
1.0
148
0.0
149
0.0
100
AcDbLayout
  1
Layout1
 70
     1
 71
     1
 10
0.0
 20
0.0
 11
12.0
 21
9.0
 12
0.0
 22
0.0
 32
0.0
 14
1.000000000000000E+20
 24
1.000000000000000E+20
 34
1.000000000000000E+20
 15
-1.000000000000000E+20
 25
-1.000000000000000E+20
 35
-1.000000000000000E+20
146
0.0
 13
0.0
 23
0.0
 33
0.0
 16
1.0
 26
0.0
 36
0.0
 17
0.0
 27
1.0
 37
0.0
 76
     0
330
1B
  0
LAYOUT
  5
26
102
{ACAD_REACTORS
330
1A
102
}
330
1A
100
AcDbPlotSettings
  1

  2
none_device
  4

  6

 40
0.0
 41
0.0
 42
0.0
 43
0.0
 44
0.0
 45
0.0
 46
0.0
 47
0.0
 48
0.0
 49
0.0
140
0.0
141
0.0
142
1.0
143
1.0
 70
   688
 72
     0
 73
     0
 74
     5
  7

 75
    16
 76
     0
 77
     2
 78
   300
147
1.0
148
0.0
149
0.0
100
AcDbLayout
  1
Layout2
 70
     1
 71
     2
 10
0.0
 20
0.0
 11
0.0
 21
0.0
 12
0.0
 22
0.0
 32
0.0
 14
0.0
 24
0.0
 34
0.0
 15
0.0
 25
0.0
 35
0.0
146
0.0
 13
0.0
 23
0.0
 33
0.0
 16
1.0
 26
0.0
 36
0.0
 17
0.0
 27
1.0
 37
0.0
 76
     0
330
23
  0
LAYOUT
  5
22
102
{ACAD_REACTORS
330
1A
102
}
330
1A
100
AcDbPlotSettings
  1

  2
none_device
  4

  6

 40
0.0
 41
0.0
 42
0.0
 43
0.0
 44
0.0
 45
0.0
 46
0.0
 47
0.0
 48
0.0
 49
0.0
140
0.0
141
0.0
142
1.0
143
1.0
 70
  1712
 72
     0
 73
     0
 74
     0
  7

 75
     0
 76
     0
 77
     2
 78
   300
147
1.0
148
0.0
149
0.0
100
AcDbLayout
  1
Model
 70
     1
 71
     0
 10
0.0
 20
0.0
 11
12.0
 21
9.0
 12
0.0
 22
0.0
 32
0.0
 14
1.000000000000000E+20
 24
1.000000000000000E+20
 34
1.000000000000000E+20
 15
-1.000000000000000E+20
 25
-1.000000000000000E+20
 35
-1.000000000000000E+20
146
0.0
 13
0.0
 23
0.0
 33
0.0
 16
1.0
 26
0.0
 36
0.0
 17
0.0
 27
1.0
 37
0.0
 76
     0
330
1F
331
29
  0
MLINESTYLE
  5
18
102
{ACAD_REACTORS
330
17
102
}
330
17
100
AcDbMlineStyle
  2
Standard
 70
     0
  3

 62
   256
 51
90.0
 52
90.0
 71
     2
 49
0.5
 62
   256
  6
BYLAYER
 49
-0.5
 62
   256
  6
BYLAYER
  0
ACDBPLACEHOLDER
  5
F
102
{ACAD_REACTORS
330
E
102
}
330
E
  0
VISUALSTYLE
  5
2F
102
{ACAD_REACTORS
330
2A
102
}
330
2A
100
AcDbVisualStyle
  2
2dWireframe
 70
     4
 71
     0
 72
     2
 73
     0
 90
        0
 40
-0.6
 41
-30.0
 62
     5
 63
     7
421
 16777215
 74
     1
 91
        4
 64
     7
 65
   257
 75
     1
175
     1
 42
1.0
 92
        0
 66
   257
 43
1.0
 76
     1
 77
     6
 78
     2
 67
     7
 79
     5
170
     0
171
     0
290
     0
174
     0
 93
        1
 44
0.0
173
     0
291
     0
 45
0.0
1001
ACAD
1000
AcDbSavedByObjectVersion
1070
     0
  0
VISUALSTYLE
  5
31
102
{ACAD_REACTORS
330
2A
102
}
330
2A
100
AcDbVisualStyle
  2
3D Hidden
 70
     6
 71
     1
 72
     2
 73
     2
 90
        0
 40
-0.6
 41
-30.0
 62
     5
 63
     7
421
 16777215
 74
     2
 91
        2
 64
     7
 65
   257
 75
     2
175
     1
 42
40.0
 92
        0
 66
   257
 43
1.0
 76
     1
 77
     6
 78
     2
 67
     7
 79
     3
170
     0
171
     0
290
     0
174
     0
 93
        1
 44
0.0
173
     0
291
     0
 45
0.0
1001
ACAD
1000
AcDbSavedByObjectVersion
1070
     0
  0
VISUALSTYLE
  5
30
102
{ACAD_REACTORS
330
2A
102
}
330
2A
100
AcDbVisualStyle
  2
3dWireframe
 70
     5
 71
     0
 72
     2
 73
     0
 90
        0
 40
-0.6
 41
-30.0
 62
     5
 63
     7
421
 16777215
 74
     1
 91
        4
 64
     7
 65
   257
 75
     1
175
     1
 42
1.0
 92
        0
 66
   257
 43
1.0
 76
     1
 77
     6
 78
     2
 67
     7
 79
     5
170
     0
171
     0
290
     0
174
     0
 93
        1
 44
0.0
173
     0
291
     0
 45
0.0
1001
ACAD
1000
AcDbSavedByObjectVersion
1070
     0
  0
VISUALSTYLE
  5
32
102
{ACAD_REACTORS
330
2A
102
}
330
2A
100
AcDbVisualStyle
  2
Basic
 70
     7
 71
     1
 72
     0
 73
     1
 90
        0
 40
-0.6
 41
-30.0
 62
     5
 63
     7
421
 16777215
 74
     0
 91
        4
 64
     7
 65
   257
 75
     1
175
     1
 42
1.0
 92
        8
 66
     7
 43
1.0
 76
     1
 77
     6
 78
     2
 67
     7
 79
     5
170
     0
171
     0
290
     0
174
     0
 93
        1
 44
0.0
173
     0
291
     1
 45
0.0
1001
ACAD
1000
AcDbSavedByObjectVersion
1070
     0
  0
VISUALSTYLE
  5
36
102
{ACAD_REACTORS
330
2A
102
}
330
2A
100
AcDbVisualStyle
  2
Brighten
 70
    12
 71
     2
 72
     2
 73
     0
 90
        0
 40
-0.6
 41
-30.0
 62
     5
 63
     7
421
 16777215
 74
     1
 91
        4
 64
     7
 65
   257
 75
     1
175
     1
 42
1.0
 92
        8
 66
     7
 43
1.0
 76
     1
 77
     6
 78
     2
 67
     7
 79
     5
170
     0
171
     0
290
     0
174
     0
 93
        1
 44
50.0
173
     0
291
     1
 45
0.0
1001
ACAD
1000
AcDbSavedByObjectVersion
1070
     0
  0
VISUALSTYLE
  5
3A
102
{ACAD_REACTORS
330
2A
102
}
330
2A
100
AcDbVisualStyle
  2
ColorChange
 70
    16
 71
     2
 72
     2
 73
     3
 90
        0
 40
-0.6
 41
-30.0
 62
     5
 63
     8
421
  8421504
 74
     1
 91
        4
 64
     7
 65
   257
 75
     1
175
     1
 42
1.0
 92
        8
 66
     8
424
  8421504
 43
1.0
 76
     1
 77
     6
 78
     2
 67
     7
 79
     5
170
     0
171
     0
290
     0
174
     0
 93
        1
 44
0.0
173
     0
291
     1
 45
0.0
1001
ACAD
1000
AcDbSavedByObjectVersion
1070
     0
  0
VISUALSTYLE
  5
34
102
{ACAD_REACTORS
330
2A
102
}
330
2A
100
AcDbVisualStyle
  2
Conceptual
 70
     9
 71
     3
 72
     2
 73
     0
 90
        0
 40
-0.6
 41
-30.0
 62
     5
 63
     7
421
 16777215
 74
     2
 91
        2
 64
     7
 65
   257
 75
     1
175
     1
 42
40.0
 92
        8
 66
     7
 43
1.0
 76
     1
 77
     6
 78
     2
 67
     7
 79
     3
170
     0
171
     0
290
     0
174
     0
 93
        1
 44
0.0
173
     0
291
     0
 45
0.0
1001
ACAD
1000
AcDbSavedByObjectVersion
1070
     0
  0
VISUALSTYLE
  5
35
102
{ACAD_REACTORS
330
2A
102
}
330
2A
100
AcDbVisualStyle
  2
Dim
 70
    11
 71
     2
 72
     2
 73
     0
 90
        0
 40
-0.6
 41
-30.0
 62
     5
 63
     7
421
 16777215
 74
     1
 91
        4
 64
     7
 65
   257
 75
     1
175
     1
 42
1.0
 92
        8
 66
     7
 43
1.0
 76
     1
 77
     6
 78
     2
 67
     7
 79
     5
170
     0
171
     0
290
     0
174
     0
 93
        1
 44
-50.0
173
     0
291
     1
 45
0.0
1001
ACAD
1000
AcDbSavedByObjectVersion
1070
     0
  0
VISUALSTYLE
  5
39
102
{ACAD_REACTORS
330
2A
102
}
330
2A
100
AcDbVisualStyle
  2
Facepattern
 70
    15
 71
     2
 72
     2
 73
     0
 90
        0
 40
-0.6
 41
-30.0
 62
     5
 63
     7
421
 16777215
 74
     1
 91
        4
 64
     7
 65
   257
 75
     1
175
     1
 42
1.0
 92
        8
 66
     7
 43
1.0
 76
     1
 77
     6
 78
     2
 67
     7
 79
     5
170
     0
171
     0
290
     0
174
     0
 93
        1
 44
0.0
173
     0
291
     1
 45
0.0
1001
ACAD
1000
AcDbSavedByObjectVersion
1070
     0
  0
VISUALSTYLE
  5
2B
102
{ACAD_REACTORS
330
2A
102
}
330
2A
100
AcDbVisualStyle
  2
Flat
 70
     0
 71
     2
 72
     1
 73
     1
 90
        2
 40
-0.6
 41
30.0
 62
     5
 63
     7
421
 16777215
 74
     0
 91
        4
 64
     7
 65
   257
 75
     1
175
     1
 42
1.0
 92
        8
 66
     7
 43
1.0
 76
     1
 77
     6
 78
     2
 67
     7
 79
     5
170
     0
171
     0
290
     0
174
     0
 93
       13
 44
0.0
173
     0
291
     1
 45
0.0
1001
ACAD
1000
AcDbSavedByObjectVersion
1070
     0
  0
VISUALSTYLE
  5
2C
102
{ACAD_REACTORS
330
2A
102
}
330
2A
100
AcDbVisualStyle
  2
FlatWithEdges
 70
     1
 71
     2
 72
     1
 73
     1
 90
        2
 40
-0.6
 41
30.0
 62
     5
 63
     7
421
 16777215
 74
     1
 91
        4
 64
     7
 65
   257
 75
     1
175
     1
 42
1.0
 92
        0
 66
   257
 43
1.0
 76
     1
 77
     6
 78
     2
 67
     7
 79
     5
170
     0
171
     0
290
     0
174
     0
 93
       13
 44
0.0
173
     0
291
     1
 45
0.0
1001
ACAD
1000
AcDbSavedByObjectVersion
1070
     0
  0
VISUALSTYLE
  5
2D
102
{ACAD_REACTORS
330
2A
102
}
330
2A
100
AcDbVisualStyle
  2
Gouraud
 70
     2
 71
     2
 72
     2
 73
     1
 90
        2
 40
-0.6
 41
30.0
 62
     5
 63
     7
421
 16777215
 74
     0
 91
        4
 64
     7
 65
   257
 75
     1
175
     1
 42
1.0
 92
        0
 66
     7
 43
1.0
 76
     1
 77
     6
 78
     2
 67
     7
 79
     5
170
     0
171
     0
290
     0
174
     0
 93
       13
 44
0.0
173
     0
291
     1
 45
0.0
1001
ACAD
1000
AcDbSavedByObjectVersion
1070
     0
  0
VISUALSTYLE
  5
2E
102
{ACAD_REACTORS
330
2A
102
}
330
2A
100
AcDbVisualStyle
  2
GouraudWithEdges
 70
     3
 71
     2
 72
     2
 73
     1
 90
        2
 40
-0.6
 41
30.0
 62
     5
 63
     7
421
 16777215
 74
     1
 91
        4
 64
     7
 65
   257
 75
     1
175
     1
 42
1.0
 92
        0
 66
   257
 43
1.0
 76
     1
 77
     6
 78
     2
 67
     7
 79
     5
170
     0
171
     0
290
     0
174
     0
 93
       13
 44
0.0
173
     0
291
     1
 45
0.0
1001
ACAD
1000
AcDbSavedByObjectVersion
1070
     0
  0
VISUALSTYLE
  5
38
102
{ACAD_REACTORS
330
2A
102
}
330
2A
100
AcDbVisualStyle
  2
Linepattern
 70
    14
 71
     2
 72
     2
 73
     0
 90
        0
 40
-0.6
 41
-30.0
 62
     5
 63
     7
421
 16777215
 74
     1
 91
        4
 64
     7
 65
   257
 75
     7
175
     7
 42
1.0
 92
        8
 66
     7
 43
1.0
 76
     1
 77
     6
 78
     2
 67
     7
 79
     5
170
     0
171
     0
290
     0
174
     0
 93
        1
 44
0.0
173
     0
291
     1
 45
0.0
1001
ACAD
1000
AcDbSavedByObjectVersion
1070
     0
  0
VISUALSTYLE
  5
33
102
{ACAD_REACTORS
330
2A
102
}
330
2A
100
AcDbVisualStyle
  2
Realistic
 70
     8
 71
     2
 72
     2
 73
     0
 90
        0
 40
-0.6
 41
-30.0
 62
     5
 63
     7
421
 16777215
 74
     1
 91
        0
 64
     7
 65
   257
 75
     1
175
     1
 42
1.0
 92
        8
 66
     8
424
  7895160
 43
1.0
 76
     1
 77
     6
 78
     2
 67
     7
 79
     5
170
     0
171
     0
290
     0
174
     0
 93
       13
 44
0.0
173
     0
291
     0
 45
0.0
1001
ACAD
1000
AcDbSavedByObjectVersion
1070
     0
  0
VISUALSTYLE
  5
37
102
{ACAD_REACTORS
330
2A
102
}
330
2A
100
AcDbVisualStyle
  2
Thicken
 70
    13
 71
     2
 72
     2
 73
     0
 90
        0
 40
-0.6
 41
-30.0
 62
     5
 63
     7
421
 16777215
 74
     1
 91
        4
 64
     7
 65
   257
 75
     1
175
     1
 42
1.0
 92
       12
 66
     7
 43
1.0
 76
     1
 77
     6
 78
     2
 67
     7
 79
     5
170
     0
171
     0
290
     0
174
     0
 93
        1
 44
0.0
173
     0
291
     1
 45
0.0
1001
ACAD
1000
AcDbSavedByObjectVersion
1070
     0
  0
ENDSEC
  0
EOF
