  0
SECTION
  2
HEADER
  9
$ACADVER
  1
AC1021
  9
$ACADMAINTVER
 70
    25
  9
$DWGCODEPAGE
  3
ANSI_1256
  9
$INSBASE
 10
0.0
 20
0.0
 30
0.0
  9
$EXTMIN
 10
-4.84348
 20
-6.38884
 30
0.0
  9
$EXTMAX
 10
2.99184
 20
3.24559
 30
0.0
  9
$LIMMIN
 10
0.0
 20
0.0
  9
$LIMMAX
 10
12.0
 20
9.0
  9
$ORTHOMODE
 70
     0
  9
$REGENMODE
 70
     1
  9
$FILLMODE
 70
     1
  9
$QTEXTMODE
 70
     0
  9
$MIRRTEXT
 70
     1
  9
$LTSCALE
 40
1.0
  9
$ATTMODE
 70
     1
  9
$TEXTSIZE
 40
0.2
  9
$TRACEWID
 40
0.05
  9
$TEXTSTYLE
  7
Standard
  9
$CLAYER
  8
0
  9
$CELTYPE
  6
ByLayer
  9
$CECOLOR
 62
   256
  9
$CELTSCALE
 40
1.0
  9
$DISPSILH
 70
     0
  9
$DIMSCALE
 40
1.0
  9
$DIMASZ
 40
0.18
  9
$DIMEXO
 40
0.0625
  9
$DIMDLI
 40
0.38
  9
$DIMRND
 40
0.0
  9
$DIMDLE
 40
0.0
  9
$DIMEXE
 40
0.18
  9
$DIMTP
 40
0.0
  9
$DIMTM
 40
0.0
  9
$DIMTXT
 40
0.18
  9
$DIMCEN
 40
0.09
  9
$DIMTSZ
 40
0.0
  9
$DIMTOL
 70
     0
  9
$DIMLIM
 70
     0
  9
$DIMTIH
 70
     1
  9
$DIMTOH
 70
     1
  9
$DIMSE1
 70
     0
  9
$DIMSE2
 70
     0
  9
$DIMTAD
 70
     0
  9
$DIMZIN
 70
     0
  9
$DIMBLK
  1

  9
$DIMASO
 70
     1
  9
$DIMSHO
 70
     1
  9
$DIMPOST
  1

  9
$DIMAPOST
  1

  9
$DIMALT
 70
     0
  9
$DIMALTD
 70
     2
  9
$DIMALTF
 40
25.4
  9
$DIMLFAC
 40
1.0
  9
$DIMTOFL
 70
     0
  9
$DIMTVP
 40
0.0
  9
$DIMTIX
 70
     0
  9
$DIMSOXD
 70
     0
  9
$DIMSAH
 70
     0
  9
$DIMBLK1
  1

  9
$DIMBLK2
  1

  9
$DIMSTYLE
  2
Standard
  9
$DIMCLRD
 70
     0
  9
$DIMCLRE
 70
     0
  9
$DIMCLRT
 70
     0
  9
$DIMTFAC
 40
1.0
  9
$DIMGAP
 40
0.09
  9
$DIMJUST
 70
     0
  9
$DIMSD1
 70
     0
  9
$DIMSD2
 70
     0
  9
$DIMTOLJ
 70
     1
  9
$DIMTZIN
 70
     0
  9
$DIMALTZ
 70
     0
  9
$DIMALTTZ
 70
     0
  9
$DIMUPT
 70
     0
  9
$DIMDEC
 70
     4
  9
$DIMTDEC
 70
     4
  9
$DIMALTU
 70
     2
  9
$DIMALTTD
 70
     2
  9
$DIMTXSTY
  7
Standard
  9
$DIMAUNIT
 70
     0
  9
$DIMADEC
 70
     0
  9
$DIMALTRND
 40
0.0
  9
$DIMAZIN
 70
     0
  9
$DIMDSEP
 70
    46
  9
$DIMATFIT
 70
     3
  9
$DIMFRAC
 70
     0
  9
$DIMLDRBLK
  1

  9
$DIMLUNIT
 70
     2
  9
$DIMLWD
 70
    -2
  9
$DIMLWE
 70
    -2
  9
$DIMTMOVE
 70
     0
  9
$DIMFXL
 40
1.0
  9
$DIMFXLON
 70
     0
  9
$DIMJOGANG
 40
0.7853981633974483
  9
$DIMTFILL
 70
     0
  9
$DIMTFILLCLR
 70
     0
  9
$DIMARCSYM
 70
     0
  9
$DIMLTYPE
  6

  9
$DIMLTEX1
  6

  9
$DIMLTEX2
  6

  9
$LUNITS
 70
     2
  9
$LUPREC
 70
     4
  9
$SKETCHINC
 40
0.1
  9
$FILLETRAD
 40
0.5
  9
$AUNITS
 70
     0
  9
$AUPREC
 70
     0
  9
$MENU
  1
.
  9
$ELEVATION
 40
0.0
  9
$PELEVATION
 40
0.0
  9
$THICKNESS
 40
0.0
  9
$LIMCHECK
 70
     0
  9
$CHAMFERA
 40
0.5
  9
$CHAMFERB
 40
0.5
  9
$CHAMFERC
 40
1.0
  9
$CHAMFERD
 40
0.0
  9
$SKPOLY
 70
     0
  9
$TDCREATE
 40
2457761.882547801
  9
$TDUCREATE
 40
2457761.799214467
  9
$TDUPDATE
 40
2457761.882547813
  9
$TDUUPDATE
 40
2457761.799214479
  9
$TDINDWG
 40
0.0000000116
  9
$TDUSRTIMER
 40
0.0000000116
  9
$USRTIMER
 70
     1
  9
$ANGBASE
 50
0.0
  9
$ANGDIR
 70
     0
  9
$PDMODE
 70
     0
  9
$PDSIZE
 40
0.0
  9
$PLINEWID
 40
0.0
  9
$SPLFRAME
 70
     0
  9
$SPLINETYPE
 70
     6
  9
$SPLINESEGS
 70
     8
  9
$HANDSEED
  5
C4
  9
$SURFTAB1
 70
     6
  9
$SURFTAB2
 70
     6
  9
$SURFTYPE
 70
     6
  9
$SURFU
 70
     6
  9
$SURFV
 70
     6
  9
$UCSBASE
  2

  9
$UCSNAME
  2

  9
$UCSORG
 10
0.0
 20
0.0
 30
0.0
  9
$UCSXDIR
 10
1.0
 20
0.0
 30
0.0
  9
$UCSYDIR
 10
0.0
 20
1.0
 30
0.0
  9
$UCSORTHOREF
  2

  9
$UCSORTHOVIEW
 70
     0
  9
$UCSORGTOP
 10
0.0
 20
0.0
 30
0.0
  9
$UCSORGBOTTOM
 10
0.0
 20
0.0
 30
0.0
  9
$UCSORGLEFT
 10
0.0
 20
0.0
 30
0.0
  9
$UCSORGRIGHT
 10
0.0
 20
0.0
 30
0.0
  9
$UCSORGFRONT
 10
0.0
 20
0.0
 30
0.0
  9
$UCSORGBACK
 10
0.0
 20
0.0
 30
0.0
  9
$PUCSBASE
  2

  9
$PUCSNAME
  2

  9
$PUCSORG
 10
0.0
 20
0.0
 30
0.0
  9
$PUCSXDIR
 10
1.0
 20
0.0
 30
0.0
  9
$PUCSYDIR
 10
0.0
 20
1.0
 30
0.0
  9
$PUCSORTHOREF
  2

  9
$PUCSORTHOVIEW
 70
     0
  9
$PUCSORGTOP
 10
0.0
 20
0.0
 30
0.0
  9
$PUCSORGBOTTOM
 10
0.0
 20
0.0
 30
0.0
  9
$PUCSORGLEFT
 10
0.0
 20
0.0
 30
0.0
  9
$PUCSORGRIGHT
 10
0.0
 20
0.0
 30
0.0
  9
$PUCSORGFRONT
 10
0.0
 20
0.0
 30
0.0
  9
$PUCSORGBACK
 10
0.0
 20
0.0
 30
0.0
  9
$USERI1
 70
     0
  9
$USERI2
 70
     0
  9
$USERI3
 70
     0
  9
$USERI4
 70
     0
  9
$USERI5
 70
     0
  9
$USERR1
 40
0.0
  9
$USERR2
 40
0.0
  9
$USERR3
 40
0.0
  9
$USERR4
 40
0.0
  9
$USERR5
 40
0.0
  9
$WORLDVIEW
 70
     1
  9
$SHADEDGE
 70
     3
  9
$SHADEDIF
 70
    70
  9
$TILEMODE
 70
     1
  9
$MAXACTVP
 70
    64
  9
$PINSBASE
 10
0.0
 20
0.0
 30
0.0
  9
$PLIMCHECK
 70
     0
  9
$PEXTMIN
 10
1.000000000000000E+20
 20
1.000000000000000E+20
 30
1.000000000000000E+20
  9
$PEXTMAX
 10
-1.000000000000000E+20
 20
-1.000000000000000E+20
 30
-1.000000000000000E+20
  9
$PLIMMIN
 10
0.0
 20
0.0
  9
$PLIMMAX
 10
12.0
 20
9.0
  9
$UNITMODE
 70
     0
  9
$VISRETAIN
 70
     1
  9
$PLINEGEN
 70
     0
  9
$PSLTSCALE
 70
     1
  9
$TREEDEPTH
 70
  3020
  9
$CMLSTYLE
  2
Standard
  9
$CMLJUST
 70
     0
  9
$CMLSCALE
 40
1.0
  9
$PROXYGRAPHICS
 70
     1
  9
$MEASUREMENT
 70
     0
  9
$CELWEIGHT
370
    -1
  9
$ENDCAPS
280
     0
  9
$JOINSTYLE
280
     0
  9
$LWDISPLAY
290
     0
  9
$INSUNITS
 70
     5
  9
$HYPERLINKBASE
  1

  9
$STYLESHEET
  1

  9
$XEDIT
290
     1
  9
$CEPSNTYPE
380
     0
  9
$PSTYLEMODE
290
     1
  9
$FINGERPRINTGUID
  2
{AA3D7D09-7875-4E38-959A-7A85AAE0F44B}
  9
$VERSIONGUID
  2
{FAEB1C32-E019-11D5-929B-00C0DF256EC4}
  9
$EXTNAMES
290
     1
  9
$PSVPSCALE
 40
0.0
  9
$OLESTARTUP
290
     0
  9
$SORTENTS
280
   127
  9
$INDEXCTL
280
     0
  9
$HIDETEXT
280
     1
  9
$XCLIPFRAME
290
     0
  9
$HALOGAP
280
     0
  9
$OBSCOLOR
 70
   257
  9
$OBSLTYPE
280
     0
  9
$INTERSECTIONDISPLAY
280
     0
  9
$INTERSECTIONCOLOR
 70
   257
  9
$DIMASSOC
280
     2
  9
$PROJECTNAME
  1

  9
$CAMERADISPLAY
290
     0
  9
$LENSLENGTH
 40
50.0
  9
$CAMERAHEIGHT
 40
0.0
  9
$STEPSPERSEC
 40
2.0
  9
$STEPSIZE
 40
6.0
  9
$3DDWFPREC
 40
2.0
  9
$PSOLWIDTH
 40
0.25
  9
$PSOLHEIGHT
 40
4.0
  9
$LOFTANG1
 40
1.570796326794897
  9
$LOFTANG2
 40
1.570796326794897
  9
$LOFTMAG1
 40
0.0
  9
$LOFTMAG2
 40
0.0
  9
$LOFTPARAM
 70
     7
  9
$LOFTNORMALS
280
     1
  9
$LATITUDE
 40
37.795
  9
$LONGITUDE
 40
-122.394
  9
$NORTHDIRECTION
 40
0.0
  9
$TIMEZONE
 70
 -8000
  9
$LIGHTGLYPHDISPLAY
280
     1
  9
$TILEMODELIGHTSYNCH
280
     1
  9
$SOLIDHIST
280
     1
  9
$SHOWHIST
280
     1
  9
$DWFFRAME
280
     2
  9
$DGNFRAME
280
     2
  9
$REALWORLDSCALE
290
     1
  9
$INTERFERECOLOR
 62
   256
  9
$CSHADOW
280
     0
  9
$SHADOWPLANELOCATION
 40
0.0
  0
ENDSEC
  0
SECTION
  2
CLASSES
  0
CLASS
  1
ACDBDICTIONARYWDFLT
  2
AcDbDictionaryWithDefault
  3
ObjectDBX Classes
 90
        0
 91
        3
280
     0
281
     0
  0
CLASS
  1
VISUALSTYLE
  2
AcDbVisualStyle
  3
ObjectDBX Classes
 90
     4095
 91
        3
280
     0
281
     0
  0
CLASS
  1
SCALE
  2
AcDbScale
  3
ObjectDBX Classes
 90
     1153
 91
        3
280
     0
281
     0
  0
ENDSEC
  0
SECTION
  2
TABLES
  0
TABLE
  2
VPORT
  5
8
330
0
100
AcDbSymbolTable
 70
     1
  0
VPORT
  5
29
330
8
100
AcDbSymbolTableRecord
100
AcDbViewportTableRecord
  2
*Active
 70
     0
 10
0.0
 20
0.0
 11
1.0
 21
1.0
 12
10.42990654205607
 22
4.5
 13
0.0
 23
0.0
 14
0.5
 24
0.5
 15
0.5
 25
0.5
 16
0.0
 26
0.0
 36
1.0
 17
0.0
 27
0.0
 37
0.0
 40
9.0
 41
1.972972972850329
 42
50.0
 43
0.0
 44
0.0
 50
0.0
 51
0.0
 71
     0
 72
   100
 73
     1
 74
     3
 75
     0
 76
     0
 77
     0
 78
     0
281
     0
 65
     1
110
0.0
120
0.0
130
0.0
111
1.0
121
0.0
131
0.0
112
0.0
122
1.0
132
0.0
 79
     0
146
0.0
 60
     3
 61
     5
292
     1
282
     1
141
0.0
142
0.0
 63
   256
  0
ENDTAB
  0
TABLE
  2
LTYPE
  5
5
330
0
100
AcDbSymbolTable
 70
     1
  0
LTYPE
  5
14
330
5
100
AcDbSymbolTableRecord
100
AcDbLinetypeTableRecord
  2
ByBlock
 70
     0
  3

 72
    65
 73
     0
 40
0.0
  0
LTYPE
  5
15
330
5
100
AcDbSymbolTableRecord
100
AcDbLinetypeTableRecord
  2
ByLayer
 70
     0
  3

 72
    65
 73
     0
 40
0.0
  0
LTYPE
  5
16
330
5
100
AcDbSymbolTableRecord
100
AcDbLinetypeTableRecord
  2
Continuous
 70
     0
  3
Solid line
 72
    65
 73
     0
 40
0.0
  0
ENDTAB
  0
TABLE
  2
LAYER
  5
2
330
0
100
AcDbSymbolTable
 70
     2
  0
LAYER
  5
10
330
2
100
AcDbSymbolTableRecord
100
AcDbLayerTableRecord
  2
0
 70
     0
 62
     7
  6
Continuous
370
    -3
390
F
347
0
  0
LAYER
  5
5E
330
2
100
AcDbSymbolTableRecord
100
AcDbLayerTableRecord
  2
Layer 1
 70
     0
 62
     7
  6
Continuous
370
    -3
390
F
347
0
  0
ENDTAB
  0
TABLE
  2
STYLE
  5
3
330
0
100
AcDbSymbolTable
 70
     1
  0
STYLE
  5
11
330
3
100
AcDbSymbolTableRecord
100
AcDbTextStyleTableRecord
  2
Standard
 70
     0
 40
0.0
 41
1.0
 50
0.0
 71
     0
 42
0.2
  3
txt
  4

  0
ENDTAB
  0
TABLE
  2
VIEW
  5
6
330
0
100
AcDbSymbolTable
 70
     0
  0
ENDTAB
  0
TABLE
  2
UCS
  5
7
330
0
100
AcDbSymbolTable
 70
     0
  0
ENDTAB
  0
TABLE
  2
APPID
  5
9
330
0
100
AcDbSymbolTable
 70
     2
  0
APPID
  5
12
330
9
100
AcDbSymbolTableRecord
100
AcDbRegAppTableRecord
  2
ACAD
 70
     0
  0
APPID
  5
5D
330
9
100
AcDbSymbolTableRecord
100
AcDbRegAppTableRecord
  2
ODA
 70
     0
  0
ENDTAB
  0
TABLE
  2
DIMSTYLE
  5
A
330
0
100
AcDbSymbolTable
 70
     1
100
AcDbDimStyleTable
  0
DIMSTYLE
105
27
330
A
100
AcDbSymbolTableRecord
100
AcDbDimStyleTableRecord
  2
Standard
 70
     0
340
11
  0
ENDTAB
  0
TABLE
  2
BLOCK_RECORD
  5
1
330
0
100
AcDbSymbolTable
 70
     1
  0
BLOCK_RECORD
  5
1F
330
1
100
AcDbSymbolTableRecord
100
AcDbBlockTableRecord
  2
*Model_Space
340
22
 70
     0
280
     1
281
     0
  0
BLOCK_RECORD
  5
1B
330
1
100
AcDbSymbolTableRecord
100
AcDbBlockTableRecord
  2
*Paper_Space
340
1E
 70
     0
280
     1
281
     0
  0
BLOCK_RECORD
  5
23
330
1
100
AcDbSymbolTableRecord
100
AcDbBlockTableRecord
  2
*Paper_Space0
340
26
 70
     0
280
     1
281
     0
  0
ENDTAB
  0
ENDSEC
  0
SECTION
  2
BLOCKS
  0
BLOCK
  5
20
330
1F
100
AcDbEntity
  8
0
100
AcDbBlockBegin
  2
*Model_Space
 70
     0
 10
0.0
 20
0.0
 30
0.0
  3
*Model_Space
  1

  0
ENDBLK
  5
21
330
1F
100
AcDbEntity
  8
0
100
AcDbBlockEnd
  0
BLOCK
  5
1C
330
1B
100
AcDbEntity
 67
     1
  8
0
100
AcDbBlockBegin
  2
*Paper_Space
 70
     0
 10
0.0
 20
0.0
 30
0.0
  3
*Paper_Space
  1

  0
ENDBLK
  5
1D
330
1B
100
AcDbEntity
 67
     1
  8
0
100
AcDbBlockEnd
  0
BLOCK
  5
24
330
23
100
AcDbEntity
  8
0
100
AcDbBlockBegin
  2
*Paper_Space0
 70
     0
 10
0.0
 20
0.0
 30
0.0
  3
*Paper_Space0
  1

  0
ENDBLK
  5
25
330
23
100
AcDbEntity
  8
0
100
AcDbBlockEnd
  0
ENDSEC
  0
SECTION
  2
ENTITIES
  0
SPLINE
  5
5F
330
1F
100
AcDbEntity
  8
Layer 1
100
AcDbSpline
210
0.0
220
0.0
230
1.0
 70
    11
 71
     3
 72
    16
 73
    12
 74
     0
 42
0.0000000001
 43
0.0000000001
 40
0.0
 40
0.0
 40
0.0
 40
0.0
 40
0.3333333333333333
 40
0.3333333333333333
 40
0.3333333333333333
 40
0.3333333333333333
 40
0.6666666666666666
 40
0.6666666666666666
 40
0.6666666666666666
 40
0.6666666666666666
 40
1.0
 40
1.0
 40
1.0
 40
1.0
 10
-0.38356
 20
1.49636
 30
0.0
 10
-0.39769
 20
1.45141
 30
0.0
 10
-0.38291
 20
1.27527
 30
0.0
 10
-0.27198
 20
1.41348
 30
0.0
 10
-0.27198
 20
1.41348
 30
0.0
 10
-0.19808
 20
1.3543
 30
0.0
 10
-0.20945
 20
1.22354
 30
0.0
 10
-0.40568
 20
1.2952
 30
0.0
 10
-0.40568
 20
1.2952
 30
0.0
 10
-0.55282
 20
1.36481
 30
0.0
 10
-0.38356
 20
1.49636
 30
0.0
 10
-0.38356
 20
1.49636
 30
0.0
  0
SPLINE
  5
60
330
1F
100
AcDbEntity
  8
Layer 1
100
AcDbSpline
210
0.0
220
0.0
230
1.0
 70
    11
 71
     3
 72
   144
 73
   140
 74
     0
 42
0.0000000001
 43
0.0000000001
 40
0.0
 40
0.0
 40
0.0
 40
0.0
 40
0.0285714285714286
 40
0.0285714285714286
 40
0.0285714285714286
 40
0.0285714285714286
 40
0.0571428571428571
 40
0.0571428571428571
 40
0.0571428571428571
 40
0.0571428571428571
 40
0.0857142857142857
 40
0.0857142857142857
 40
0.0857142857142857
 40
0.0857142857142857
 40
0.1142857142857143
 40
0.1142857142857143
 40
0.1142857142857143
 40
0.1142857142857143
 40
0.1428571428571428
 40
0.1428571428571428
 40
0.1428571428571428
 40
0.1428571428571428
 40
0.1714285714285714
 40
0.1714285714285714
 40
0.1714285714285714
 40
0.1714285714285714
 40
0.2
 40
0.2
 40
0.2
 40
0.2
 40
0.2285714285714286
 40
0.2285714285714286
 40
0.2285714285714286
 40
0.2285714285714286
 40
0.2571428571428572
 40
0.2571428571428572
 40
0.2571428571428572
 40
0.2571428571428572
 40
0.2857142857142858
 40
0.2857142857142858
 40
0.2857142857142858
 40
0.2857142857142858
 40
0.3142857142857143
 40
0.3142857142857143
 40
0.3142857142857143
 40
0.3142857142857143
 40
0.3428571428571429
 40
0.3428571428571429
 40
0.3428571428571429
 40
0.3428571428571429
 40
0.3714285714285715
 40
0.3714285714285715
 40
0.3714285714285715
 40
0.3714285714285715
 40
0.4000000000000001
 40
0.4000000000000001
 40
0.4000000000000001
 40
0.4000000000000001
 40
0.4285714285714287
 40
0.4285714285714287
 40
0.4285714285714287
 40
0.4285714285714287
 40
0.4571428571428572
 40
0.4571428571428572
 40
0.4571428571428572
 40
0.4571428571428572
 40
0.4857142857142858
 40
0.4857142857142858
 40
0.4857142857142858
 40
0.4857142857142858
 40
0.5142857142857143
 40
0.5142857142857143
 40
0.5142857142857143
 40
0.5142857142857143
 40
0.5428571428571429
 40
0.5428571428571429
 40
0.5428571428571429
 40
0.5428571428571429
 40
0.5714285714285715
 40
0.5714285714285715
 40
0.5714285714285715
 40
0.5714285714285715
 40
0.6000000000000001
 40
0.6000000000000001
 40
0.6000000000000001
 40
0.6000000000000001
 40
0.6285714285714287
 40
0.6285714285714287
 40
0.6285714285714287
 40
0.6285714285714287
 40
0.6571428571428573
 40
0.6571428571428573
 40
0.6571428571428573
 40
0.6571428571428573
 40
0.6857142857142858
 40
0.6857142857142858
 40
0.6857142857142858
 40
0.6857142857142858
 40
0.7142857142857144
 40
0.7142857142857144
 40
0.7142857142857144
 40
0.7142857142857144
 40
0.742857142857143
 40
0.742857142857143
 40
0.742857142857143
 40
0.742857142857143
 40
0.7714285714285716
 40
0.7714285714285716
 40
0.7714285714285716
 40
0.7714285714285716
 40
0.8000000000000002
 40
0.8000000000000002
 40
0.8000000000000002
 40
0.8000000000000002
 40
0.8285714285714287
 40
0.8285714285714287
 40
0.8285714285714287
 40
0.8285714285714287
 40
0.8571428571428573
 40
0.8571428571428573
 40
0.8571428571428573
 40
0.8571428571428573
 40
0.8857142857142859
 40
0.8857142857142859
 40
0.8857142857142859
 40
0.8857142857142859
 40
0.9142857142857145
 40
0.9142857142857145
 40
0.9142857142857145
 40
0.9142857142857145
 40
0.9428571428571431
 40
0.9428571428571431
 40
0.9428571428571431
 40
0.9428571428571431
 40
0.9714285714285716
 40
0.9714285714285716
 40
0.9714285714285716
 40
0.9714285714285716
 40
1.0
 40
1.0
 40
1.0
 40
1.0
 10
0.59116
 20
-0.13989
 30
0.0
 10
0.48912
 20
-0.03487
 30
0.0
 10
0.36709
 20
-0.0807
 30
0.0
 10
0.24916
 20
-0.12494
 30
0.0
 10
0.24916
 20
-0.12494
 30
0.0
 10
0.16331
 20
-0.15717
 30
0.0
 10
0.08232
 20
-0.18752
 30
0.0
 10
0.01572
 20
-0.15565
 30
0.0
 10
0.01572
 20
-0.15565
 30
0.0
 10
0.01572
 20
-0.15565
 30
0.0
 10
-0.01507
 20
-0.14087
 30
0.0
 10
-0.01507
 20
-0.14087
 30
0.0
 10
-0.01507
 20
-0.14087
 30
0.0
 10
-0.01507
 20
-0.14087
 30
0.0
 10
0.01838
 20
-0.13421
 30
0.0
 10
0.01838
 20
-0.13421
 30
0.0
 10
0.01838
 20
-0.13421
 30
0.0
 10
0.31039
 20
-0.07554
 30
0.0
 10
0.33433
 20
0.05834
 30
0.0
 10
0.33519
 20
0.0952
 30
0.0
 10
0.33519
 20
0.0952
 30
0.0
 10
0.31876
 20
0.0983
 30
0.0
 10
0.19135
 20
0.12207
 30
0.0
 10
0.19135
 20
0.12207
 30
0.0
 10
0.19135
 20
0.12207
 30
0.0
 10
0.05689
 20
0.14104
 30
0.0
 10
0.00143
 20
0.10774
 30
0.0
 10
-0.05228
 20
0.07544
 30
0.0
 10
-0.05228
 20
0.07544
 30
0.0
 10
-0.1176
 20
0.03617
 30
0.0
 10
-0.18034
 20
-0.00005
 30
0.0
 10
-0.36296
 20
0.0603
 30
0.0
 10
-0.36296
 20
0.0603
 30
0.0
 10
-0.36589
 20
0.05672
 30
0.0
 10
-0.36958
 20
0.053
 30
0.0
 10
-0.36958
 20
0.05059
 30
0.0
 10
-0.36958
 20
0.05059
 30
0.0
 10
-0.36958
 20
0.05033
 30
0.0
 10
-0.36958
 20
0.05005
 30
0.0
 10
-0.36947
 20
0.0498
 30
0.0
 10
-0.36947
 20
0.0498
 30
0.0
 10
-0.36806
 20
0.04162
 30
0.0
 10
-0.34759
 20
0.03324
 30
0.0
 10
-0.33878
 20
0.02968
 30
0.0
 10
-0.33878
 20
0.02968
 30
0.0
 10
-0.244
 20
-0.01635
 30
0.0
 10
-0.17841
 20
-0.00191
 30
0.0
 10
-0.11495
 20
0.01197
 30
0.0
 10
-0.11495
 20
0.01197
 30
0.0
 10
-0.07147
 20
0.02148
 30
0.0
 10
-0.02662
 20
0.03128
 30
0.0
 10
0.0252
 20
0.02131
 30
0.0
 10
0.0252
 20
0.02131
 30
0.0
 10
-0.022
 20
0.0304
 30
0.0
 10
-0.06706
 20
-0.00085
 30
0.0
 10
-0.11002
 20
-0.0103
 30
0.0
 10
-0.11002
 20
-0.0103
 30
0.0
 10
-0.17734
 20
-0.02507
 30
0.0
 10
-0.24686
 20
-0.04029
 30
0.0
 10
-0.34811
 20
0.00885
 30
0.0
 10
-0.34811
 20
0.00885
 30
0.0
 10
-0.35862
 20
0.01312
 30
0.0
 10
-0.37271
 20
0.01944
 30
0.0
 10
-0.38222
 20
0.02906
 30
0.0
 10
-0.38222
 20
0.02906
 30
0.0
 10
-0.3959
 20
-0.00005
 30
0.0
 10
-0.41009
 20
-0.04839
 30
0.0
 10
-0.37136
 20
-0.07812
 30
0.0
 10
-0.37136
 20
-0.07812
 30
0.0
 10
-0.28266
 20
-0.17016
 30
0.0
 10
-0.09917
 20
-0.18985
 30
0.0
 10
0.0047
 20
-0.20692
 30
0.0
 10
0.0047
 20
-0.20692
 30
0.0
 10
0.07484
 20
-0.21849
 30
0.0
 10
0.10902
 20
-0.22481
 30
0.0
 10
0.12104
 20
-0.24156
 30
0.0
 10
0.12104
 20
-0.24156
 30
0.0
 10
0.11401
 20
-0.23176
 30
0.0
 10
0.04742
 20
-0.23709
 30
0.0
 10
0.00105
 20
-0.22945
 30
0.0
 10
0.00105
 20
-0.22945
 30
0.0
 10
-0.10293
 20
-0.21234
 30
0.0
 10
-0.25182
 20
-0.20337
 30
0.0
 10
-0.3466
 20
-0.11231
 30
0.0
 10
-0.3466
 20
-0.11231
 30
0.0
 10
-0.3466
 20
-0.15227
 30
0.0
 10
-0.21348
 20
-0.26931
 30
0.0
 10
-0.10844
 20
-0.3044
 30
0.0
 10
-0.10844
 20
-0.3044
 30
0.0
 10
0.08301
 20
-0.3667
 30
0.0
 10
0.18691
 20
-0.29754
 30
0.0
 10
0.28723
 20
-0.23069
 30
0.0
 10
0.28723
 20
-0.23069
 30
0.0
 10
0.32782
 20
-0.20373
 30
0.0
 10
0.36619
 20
-0.17817
 30
0.0
 10
0.40846
 20
-0.16321
 30
0.0
 10
0.40846
 20
-0.16321
 30
0.0
 10
0.47478
 20
-0.13972
 30
0.0
 10
0.51644
 20
-0.16608
 30
0.0
 10
0.53531
 20
-0.18385
 30
0.0
 10
0.53531
 20
-0.18385
 30
0.0
 10
0.56604
 20
-0.21279
 30
0.0
 10
0.58017
 20
-0.25845
 30
0.0
 10
0.56977
 20
-0.29487
 30
0.0
 10
0.56977
 20
-0.29487
 30
0.0
 10
0.56263
 20
-0.31952
 30
0.0
 10
0.54544
 20
-0.33573
 30
0.0
 10
0.52133
 20
-0.34053
 30
0.0
 10
0.52133
 20
-0.34053
 30
0.0
 10
0.52133
 20
-0.34053
 30
0.0
 10
0.50861
 20
-0.34303
 30
0.0
 10
0.50861
 20
-0.34303
 30
0.0
 10
0.50861
 20
-0.34303
 30
0.0
 10
0.50861
 20
-0.34303
 30
0.0
 10
0.50772
 20
-0.33011
 30
0.0
 10
0.50772
 20
-0.33011
 30
0.0
 10
0.50772
 20
-0.33011
 30
0.0
 10
0.50524
 20
-0.29513
 30
0.0
 10
0.49149
 20
-0.27253
 30
0.0
 10
0.47013
 20
-0.26825
 30
0.0
 10
0.47013
 20
-0.26825
 30
0.0
 10
0.45187
 20
-0.2646
 30
0.0
 10
0.43093
 20
-0.2752
 30
0.0
 10
0.42224
 20
-0.29229
 30
0.0
 10
0.42224
 20
-0.29229
 30
0.0
 10
0.41284
 20
-0.31098
 30
0.0
 10
0.41976
 20
-0.33225
 30
0.0
 10
0.44178
 20
-0.35218
 30
0.0
 10
0.44178
 20
-0.35218
 30
0.0
 10
0.46989
 20
-0.38148
 30
0.0
 10
0.50744
 20
-0.37738
 30
0.0
 10
0.52739
 20
-0.37249
 30
0.0
 10
0.52739
 20
-0.37249
 30
0.0
 10
0.57679
 20
-0.36022
 30
0.0
 10
0.62061
 20
-0.31917
 30
0.0
 10
0.63388
 20
-0.27261
 30
0.0
 10
0.63388
 20
-0.27261
 30
0.0
 10
0.64287
 20
-0.24137
 30
0.0
 10
0.64266
 20
-0.19295
 30
0.0
 10
0.59116
 20
-0.13989
 30
0.0
  0
SPLINE
  5
61
330
1F
100
AcDbEntity
  8
Layer 1
100
AcDbSpline
210
0.0
220
0.0
230
1.0
 70
    11
 71
     3
 72
   144
 73
   140
 74
     0
 42
0.0000000001
 43
0.0000000001
 40
0.0
 40
0.0
 40
0.0
 40
0.0
 40
0.0285714285714286
 40
0.0285714285714286
 40
0.0285714285714286
 40
0.0285714285714286
 40
0.0571428571428571
 40
0.0571428571428571
 40
0.0571428571428571
 40
0.0571428571428571
 40
0.0857142857142857
 40
0.0857142857142857
 40
0.0857142857142857
 40
0.0857142857142857
 40
0.1142857142857143
 40
0.1142857142857143
 40
0.1142857142857143
 40
0.1142857142857143
 40
0.1428571428571428
 40
0.1428571428571428
 40
0.1428571428571428
 40
0.1428571428571428
 40
0.1714285714285714
 40
0.1714285714285714
 40
0.1714285714285714
 40
0.1714285714285714
 40
0.2
 40
0.2
 40
0.2
 40
0.2
 40
0.2285714285714286
 40
0.2285714285714286
 40
0.2285714285714286
 40
0.2285714285714286
 40
0.2571428571428572
 40
0.2571428571428572
 40
0.2571428571428572
 40
0.2571428571428572
 40
0.2857142857142858
 40
0.2857142857142858
 40
0.2857142857142858
 40
0.2857142857142858
 40
0.3142857142857143
 40
0.3142857142857143
 40
0.3142857142857143
 40
0.3142857142857143
 40
0.3428571428571429
 40
0.3428571428571429
 40
0.3428571428571429
 40
0.3428571428571429
 40
0.3714285714285715
 40
0.3714285714285715
 40
0.3714285714285715
 40
0.3714285714285715
 40
0.4000000000000001
 40
0.4000000000000001
 40
0.4000000000000001
 40
0.4000000000000001
 40
0.4285714285714287
 40
0.4285714285714287
 40
0.4285714285714287
 40
0.4285714285714287
 40
0.4571428571428572
 40
0.4571428571428572
 40
0.4571428571428572
 40
0.4571428571428572
 40
0.4857142857142858
 40
0.4857142857142858
 40
0.4857142857142858
 40
0.4857142857142858
 40
0.5142857142857143
 40
0.5142857142857143
 40
0.5142857142857143
 40
0.5142857142857143
 40
0.5428571428571429
 40
0.5428571428571429
 40
0.5428571428571429
 40
0.5428571428571429
 40
0.5714285714285715
 40
0.5714285714285715
 40
0.5714285714285715
 40
0.5714285714285715
 40
0.6000000000000001
 40
0.6000000000000001
 40
0.6000000000000001
 40
0.6000000000000001
 40
0.6285714285714287
 40
0.6285714285714287
 40
0.6285714285714287
 40
0.6285714285714287
 40
0.6571428571428573
 40
0.6571428571428573
 40
0.6571428571428573
 40
0.6571428571428573
 40
0.6857142857142858
 40
0.6857142857142858
 40
0.6857142857142858
 40
0.6857142857142858
 40
0.7142857142857144
 40
0.7142857142857144
 40
0.7142857142857144
 40
0.7142857142857144
 40
0.742857142857143
 40
0.742857142857143
 40
0.742857142857143
 40
0.742857142857143
 40
0.7714285714285716
 40
0.7714285714285716
 40
0.7714285714285716
 40
0.7714285714285716
 40
0.8000000000000002
 40
0.8000000000000002
 40
0.8000000000000002
 40
0.8000000000000002
 40
0.8285714285714287
 40
0.8285714285714287
 40
0.8285714285714287
 40
0.8285714285714287
 40
0.8571428571428573
 40
0.8571428571428573
 40
0.8571428571428573
 40
0.8571428571428573
 40
0.8857142857142859
 40
0.8857142857142859
 40
0.8857142857142859
 40
0.8857142857142859
 40
0.9142857142857145
 40
0.9142857142857145
 40
0.9142857142857145
 40
0.9142857142857145
 40
0.9428571428571431
 40
0.9428571428571431
 40
0.9428571428571431
 40
0.9428571428571431
 40
0.9714285714285716
 40
0.9714285714285716
 40
0.9714285714285716
 40
0.9714285714285716
 40
1.0
 40
1.0
 40
1.0
 40
1.0
 10
-1.46939
 20
0.02906
 30
0.0
 10
-1.4789
 20
0.01944
 30
0.0
 10
-1.49305
 20
0.01312
 30
0.0
 10
-1.50356
 20
0.00885
 30
0.0
 10
-1.50356
 20
0.00885
 30
0.0
 10
-1.60478
 20
-0.04029
 30
0.0
 10
-1.67437
 20
-0.02507
 30
0.0
 10
-1.74159
 20
-0.0103
 30
0.0
 10
-1.74159
 20
-0.0103
 30
0.0
 10
-1.78468
 20
-0.00085
 30
0.0
 10
-1.82964
 20
0.0304
 30
0.0
 10
-1.87681
 20
0.02131
 30
0.0
 10
-1.87681
 20
0.02131
 30
0.0
 10
-1.82499
 20
0.03128
 30
0.0
 10
-1.78013
 20
0.02148
 30
0.0
 10
-1.73676
 20
0.01197
 30
0.0
 10
-1.73676
 20
0.01197
 30
0.0
 10
-1.67334
 20
-0.00191
 30
0.0
 10
-1.6076
 20
-0.01635
 30
0.0
 10
-1.51293
 20
0.02968
 30
0.0
 10
-1.51293
 20
0.02968
 30
0.0
 10
-1.50411
 20
0.03324
 30
0.0
 10
-1.48365
 20
0.04162
 30
0.0
 10
-1.48217
 20
0.0498
 30
0.0
 10
-1.48217
 20
0.0498
 30
0.0
 10
-1.4821
 20
0.05005
 30
0.0
 10
-1.4821
 20
0.05033
 30
0.0
 10
-1.4821
 20
0.05059
 30
0.0
 10
-1.4821
 20
0.05059
 30
0.0
 10
-1.4821
 20
0.053
 30
0.0
 10
-1.48568
 20
0.05672
 30
0.0
 10
-1.48868
 20
0.0603
 30
0.0
 10
-1.48868
 20
0.0603
 30
0.0
 10
-1.67127
 20
-0.00005
 30
0.0
 10
-1.73414
 20
0.03617
 30
0.0
 10
-1.79936
 20
0.07544
 30
0.0
 10
-1.79936
 20
0.07544
 30
0.0
 10
-1.85303
 20
0.10774
 30
0.0
 10
-1.9085
 20
0.14104
 30
0.0
 10
-2.04296
 20
0.12207
 30
0.0
 10
-2.04296
 20
0.12207
 30
0.0
 10
-2.04296
 20
0.12207
 30
0.0
 10
-2.17039
 20
0.0983
 30
0.0
 10
-2.18693
 20
0.0952
 30
0.0
 10
-2.18693
 20
0.0952
 30
0.0
 10
-2.18593
 20
0.05834
 30
0.0
 10
-2.16199
 20
-0.07554
 30
0.0
 10
-1.87005
 20
-0.13421
 30
0.0
 10
-1.87005
 20
-0.13421
 30
0.0
 10
-1.87005
 20
-0.13421
 30
0.0
 10
-1.83656
 20
-0.14087
 30
0.0
 10
-1.83656
 20
-0.14087
 30
0.0
 10
-1.83656
 20
-0.14087
 30
0.0
 10
-1.83656
 20
-0.14087
 30
0.0
 10
-1.86736
 20
-0.15565
 30
0.0
 10
-1.86736
 20
-0.15565
 30
0.0
 10
-1.86736
 20
-0.15565
 30
0.0
 10
-1.93392
 20
-0.18752
 30
0.0
 10
-2.01495
 20
-0.15717
 30
0.0
 10
-2.10077
 20
-0.12494
 30
0.0
 10
-2.10077
 20
-0.12494
 30
0.0
 10
-2.2187
 20
-0.0807
 30
0.0
 10
-2.34075
 20
-0.03487
 30
0.0
 10
-2.44276
 20
-0.13989
 30
0.0
 10
-2.44276
 20
-0.13989
 30
0.0
 10
-2.4943
 20
-0.19295
 30
0.0
 10
-2.49448
 20
-0.24137
 30
0.0
 10
-2.48555
 20
-0.27261
 30
0.0
 10
-2.48555
 20
-0.27261
 30
0.0
 10
-2.47222
 20
-0.31917
 30
0.0
 10
-2.4285
 20
-0.36022
 30
0.0
 10
-2.3791
 20
-0.37249
 30
0.0
 10
-2.3791
 20
-0.37249
 30
0.0
 10
-2.35908
 20
-0.37738
 30
0.0
 10
-2.32153
 20
-0.38148
 30
0.0
 10
-2.29345
 20
-0.35218
 30
0.0
 10
-2.29345
 20
-0.35218
 30
0.0
 10
-2.2714
 20
-0.33225
 30
0.0
 10
-2.26448
 20
-0.31098
 30
0.0
 10
-2.27392
 20
-0.29229
 30
0.0
 10
-2.27392
 20
-0.29229
 30
0.0
 10
-2.28253
 20
-0.2752
 30
0.0
 10
-2.30362
 20
-0.2646
 30
0.0
 10
-2.32181
 20
-0.26825
 30
0.0
 10
-2.32181
 20
-0.26825
 30
0.0
 10
-2.34324
 20
-0.27253
 30
0.0
 10
-2.35684
 20
-0.29513
 30
0.0
 10
-2.35936
 20
-0.33011
 30
0.0
 10
-2.35936
 20
-0.33011
 30
0.0
 10
-2.35936
 20
-0.33011
 30
0.0
 10
-2.36026
 20
-0.34303
 30
0.0
 10
-2.36026
 20
-0.34303
 30
0.0
 10
-2.36026
 20
-0.34303
 30
0.0
 10
-2.36026
 20
-0.34303
 30
0.0
 10
-2.37297
 20
-0.34053
 30
0.0
 10
-2.37297
 20
-0.34053
 30
0.0
 10
-2.37297
 20
-0.34053
 30
0.0
 10
-2.39712
 20
-0.33573
 30
0.0
 10
-2.41438
 20
-0.31952
 30
0.0
 10
-2.42141
 20
-0.29487
 30
0.0
 10
-2.42141
 20
-0.29487
 30
0.0
 10
-2.43181
 20
-0.25845
 30
0.0
 10
-2.41765
 20
-0.21279
 30
0.0
 10
-2.38695
 20
-0.18385
 30
0.0
 10
-2.38695
 20
-0.18385
 30
0.0
 10
-2.36808
 20
-0.16608
 30
0.0
 10
-2.32639
 20
-0.13972
 30
0.0
 10
-2.26018
 20
-0.16321
 30
0.0
 10
-2.26018
 20
-0.16321
 30
0.0
 10
-2.2178
 20
-0.17817
 30
0.0
 10
-2.17942
 20
-0.20373
 30
0.0
 10
-2.13887
 20
-0.23069
 30
0.0
 10
-2.13887
 20
-0.23069
 30
0.0
 10
-2.03855
 20
-0.29754
 30
0.0
 10
-1.93475
 20
-0.3667
 30
0.0
 10
-1.74317
 20
-0.3044
 30
0.0
 10
-1.74317
 20
-0.3044
 30
0.0
 10
-1.63816
 20
-0.26931
 30
0.0
 10
-1.50501
 20
-0.15227
 30
0.0
 10
-1.50501
 20
-0.11231
 30
0.0
 10
-1.50501
 20
-0.11231
 30
0.0
 10
-1.59985
 20
-0.20337
 30
0.0
 10
-1.74882
 20
-0.21234
 30
0.0
 10
-1.85269
 20
-0.22945
 30
0.0
 10
-1.85269
 20
-0.22945
 30
0.0
 10
-1.89913
 20
-0.23709
 30
0.0
 10
-1.96562
 20
-0.23176
 30
0.0
 10
-1.97279
 20
-0.24156
 30
0.0
 10
-1.97279
 20
-0.24156
 30
0.0
 10
-1.96073
 20
-0.22481
 30
0.0
 10
-1.92648
 20
-0.21849
 30
0.0
 10
-1.85634
 20
-0.20692
 30
0.0
 10
-1.85634
 20
-0.20692
 30
0.0
 10
-1.75254
 20
-0.18985
 30
0.0
 10
-1.56899
 20
-0.17016
 30
0.0
 10
-1.48034
 20
-0.07812
 30
0.0
 10
-1.48034
 20
-0.07812
 30
0.0
 10
-1.44162
 20
-0.04839
 30
0.0
 10
-1.45578
 20
-0.00005
 30
0.0
 10
-1.46939
 20
0.02906
 30
0.0
  0
SPLINE
  5
62
330
1F
100
AcDbEntity
  8
Layer 1
100
AcDbSpline
210
0.0
220
0.0
230
1.0
 70
    11
 71
     3
 72
   116
 73
   112
 74
     0
 42
0.0000000001
 43
0.0000000001
 40
0.0
 40
0.0
 40
0.0
 40
0.0
 40
0.0357142857142857
 40
0.0357142857142857
 40
0.0357142857142857
 40
0.0357142857142857
 40
0.0714285714285714
 40
0.0714285714285714
 40
0.0714285714285714
 40
0.0714285714285714
 40
0.1071428571428571
 40
0.1071428571428571
 40
0.1071428571428571
 40
0.1071428571428571
 40
0.1428571428571428
 40
0.1428571428571428
 40
0.1428571428571428
 40
0.1428571428571428
 40
0.1785714285714285
 40
0.1785714285714285
 40
0.1785714285714285
 40
0.1785714285714285
 40
0.2142857142857142
 40
0.2142857142857142
 40
0.2142857142857142
 40
0.2142857142857142
 40
0.2499999999999999
 40
0.2499999999999999
 40
0.2499999999999999
 40
0.2499999999999999
 40
0.2857142857142856
 40
0.2857142857142856
 40
0.2857142857142856
 40
0.2857142857142856
 40
0.3214285714285713
 40
0.3214285714285713
 40
0.3214285714285713
 40
0.3214285714285713
 40
0.357142857142857
 40
0.357142857142857
 40
0.357142857142857
 40
0.357142857142857
 40
0.3928571428571427
 40
0.3928571428571427
 40
0.3928571428571427
 40
0.3928571428571427
 40
0.4285714285714284
 40
0.4285714285714284
 40
0.4285714285714284
 40
0.4285714285714284
 40
0.4642857142857141
 40
0.4642857142857141
 40
0.4642857142857141
 40
0.4642857142857141
 40
0.4999999999999998
 40
0.4999999999999998
 40
0.4999999999999998
 40
0.4999999999999998
 40
0.5357142857142856
 40
0.5357142857142856
 40
0.5357142857142856
 40
0.5357142857142856
 40
0.5714285714285713
 40
0.5714285714285713
 40
0.5714285714285713
 40
0.5714285714285713
 40
0.607142857142857
 40
0.607142857142857
 40
0.607142857142857
 40
0.607142857142857
 40
0.6428571428571427
 40
0.6428571428571427
 40
0.6428571428571427
 40
0.6428571428571427
 40
0.6785714285714284
 40
0.6785714285714284
 40
0.6785714285714284
 40
0.6785714285714284
 40
0.7142857142857141
 40
0.7142857142857141
 40
0.7142857142857141
 40
0.7142857142857141
 40
0.7499999999999998
 40
0.7499999999999998
 40
0.7499999999999998
 40
0.7499999999999998
 40
0.7857142857142855
 40
0.7857142857142855
 40
0.7857142857142855
 40
0.7857142857142855
 40
0.8214285714285712
 40
0.8214285714285712
 40
0.8214285714285712
 40
0.8214285714285712
 40
0.8571428571428569
 40
0.8571428571428569
 40
0.8571428571428569
 40
0.8571428571428569
 40
0.8928571428571426
 40
0.8928571428571426
 40
0.8928571428571426
 40
0.8928571428571426
 40
0.9285714285714283
 40
0.9285714285714283
 40
0.9285714285714283
 40
0.9285714285714283
 40
0.964285714285714
 40
0.964285714285714
 40
0.964285714285714
 40
0.964285714285714
 40
1.0
 40
1.0
 40
1.0
 40
1.0
 10
0.10127
 20
1.36515
 30
0.0
 10
-0.25024
 20
1.50261
 30
0.0
 10
0.03416
 20
1.8429
 30
0.0
 10
0.27404
 20
1.76733
 30
0.0
 10
0.27404
 20
1.76733
 30
0.0
 10
0.27404
 20
1.76733
 30
0.0
 10
0.28672
 20
1.90309
 30
0.0
 10
0.28672
 20
1.90309
 30
0.0
 10
0.28672
 20
1.90309
 30
0.0
 10
0.28672
 20
1.90309
 30
0.0
 10
0.35276
 20
1.89657
 30
0.0
 10
0.39841
 20
1.89871
 30
0.0
 10
0.39841
 20
1.89871
 30
0.0
 10
0.58809
 20
1.90796
 30
0.0
 10
0.5371
 20
1.80605
 30
0.0
 10
0.52346
 20
1.67777
 30
0.0
 10
0.52346
 20
1.67777
 30
0.0
 10
0.50975
 20
1.54951
 30
0.0
 10
0.70274
 20
1.50998
 30
0.0
 10
0.60876
 20
1.35189
 30
0.0
 10
0.60876
 20
1.35189
 30
0.0
 10
0.42628
 20
1.10942
 30
0.0
 10
0.76782
 20
1.04737
 30
0.0
 10
0.80093
 20
1.34674
 30
0.0
 10
0.80093
 20
1.34674
 30
0.0
 10
0.8329
 20
1.48125
 30
0.0
 10
0.57776
 20
1.5854
 30
0.0
 10
0.61355
 20
1.72032
 30
0.0
 10
0.61355
 20
1.72032
 30
0.0
 10
0.69837
 20
1.71624
 30
0.0
 10
0.7413
 20
1.71043
 30
0.0
 10
0.80689
 20
1.56206
 30
0.0
 10
0.80689
 20
1.56206
 30
0.0
 10
0.87252
 20
1.41367
 30
0.0
 10
0.88247
 20
1.5414
 30
0.0
 10
0.8863
 20
1.59937
 30
0.0
 10
0.8863
 20
1.59937
 30
0.0
 10
0.89012
 20
1.6574
 30
0.0
 10
0.84028
 20
1.77338
 30
0.0
 10
0.67515
 20
1.86257
 30
0.0
 10
0.67515
 20
1.86257
 30
0.0
 10
0.5101
 20
1.95187
 30
0.0
 10
0.60308
 20
2.05992
 30
0.0
 10
0.53387
 20
2.11975
 30
0.0
 10
0.53387
 20
2.11975
 30
0.0
 10
0.53387
 20
2.11975
 30
0.0
 10
0.64036
 20
2.18364
 30
0.0
 10
0.70612
 20
1.94713
 30
0.0
 10
0.70612
 20
1.94713
 30
0.0
 10
0.77192
 20
1.71062
 30
0.0
 10
0.94924
 20
1.81842
 30
0.0
 10
0.82033
 20
1.98141
 30
0.0
 10
0.82033
 20
1.98141
 30
0.0
 10
0.65014
 20
2.19647
 30
0.0
 10
0.79487
 20
2.37646
 30
0.0
 10
0.85667
 20
2.37315
 30
0.0
 10
0.85667
 20
2.37315
 30
0.0
 10
0.82622
 20
2.34237
 30
0.0
 10
0.85264
 20
2.20029
 30
0.0
 10
0.96044
 20
2.34094
 30
0.0
 10
0.96044
 20
2.34094
 30
0.0
 10
1.09263
 20
2.50019
 30
0.0
 10
1.35325
 20
2.35465
 30
0.0
 10
1.27656
 20
2.15294
 30
0.0
 10
1.27656
 20
2.15294
 30
0.0
 10
1.26309
 20
2.25459
 30
0.0
 10
1.14389
 20
2.25796
 30
0.0
 10
1.09538
 20
2.24773
 30
0.0
 10
1.09538
 20
2.24773
 30
0.0
 10
0.81964
 20
2.2189
 30
0.0
 10
0.94211
 20
2.01674
 30
0.0
 10
0.96078
 20
1.58627
 30
0.0
 10
0.96078
 20
1.58627
 30
0.0
 10
0.96054
 20
1.29892
 30
0.0
 10
0.84999
 20
1.15019
 30
0.0
 10
0.64104
 20
1.0497
 30
0.0
 10
0.64104
 20
1.0497
 30
0.0
 10
0.43217
 20
0.94929
 30
0.0
 10
0.1496
 20
1.05744
 30
0.0
 10
0.11498
 20
1.02986
 30
0.0
 10
0.11498
 20
1.02986
 30
0.0
 10
0.07502
 20
0.89818
 30
0.0
 10
0.43578
 20
1.03787
 30
0.0
 10
0.6715
 20
0.82003
 30
0.0
 10
0.6715
 20
0.82003
 30
0.0
 10
0.45187
 20
0.8868
 30
0.0
 10
0.277
 20
0.84827
 30
0.0
 10
0.16831
 20
0.83009
 30
0.0
 10
0.16831
 20
0.83009
 30
0.0
 10
0.05951
 20
0.81185
 30
0.0
 10
0.00745
 20
0.85859
 30
0.0
 10
-0.0683
 20
0.90986
 30
0.0
 10
-0.0683
 20
0.90986
 30
0.0
 10
0.01634
 20
0.99387
 30
0.0
 10
-0.05707
 20
1.13336
 30
0.0
 10
-0.01239
 20
1.12411
 30
0.0
 10
-0.01239
 20
1.12411
 30
0.0
 10
0.46383
 20
0.99949
 30
0.0
 10
0.68149
 20
1.64128
 30
0.0
 10
0.28579
 20
1.70759
 30
0.0
 10
0.28579
 20
1.70759
 30
0.0
 10
-0.13186
 20
1.73662
 30
0.0
 10
0.08084
 20
1.25906
 30
0.0
 10
0.20899
 20
1.44838
 30
0.0
 10
0.20899
 20
1.44838
 30
0.0
 10
0.09886
 20
1.49894
 30
0.0
 10
0.17258
 20
1.66586
 30
0.0
 10
0.27414
 20
1.56429
 30
0.0
 10
0.27414
 20
1.56429
 30
0.0
 10
0.33102
 20
1.51053
 30
0.0
 10
0.27211
 20
1.31888
 30
0.0
 10
0.10127
 20
1.36515
 30
0.0
  0
SPLINE
  5
63
330
1F
100
AcDbEntity
  8
Layer 1
100
AcDbSpline
210
0.0
220
0.0
230
1.0
 70
    11
 71
     3
 72
    44
 73
    40
 74
     0
 42
0.0000000001
 43
0.0000000001
 40
0.0
 40
0.0
 40
0.0
 40
0.0
 40
0.1
 40
0.1
 40
0.1
 40
0.1
 40
0.2
 40
0.2
 40
0.2
 40
0.2
 40
0.3
 40
0.3
 40
0.3
 40
0.3
 40
0.4
 40
0.4
 40
0.4
 40
0.4
 40
0.5
 40
0.5
 40
0.5
 40
0.5
 40
0.6
 40
0.6
 40
0.6
 40
0.6
 40
0.7
 40
0.7
 40
0.7
 40
0.7
 40
0.7999999999999999
 40
0.7999999999999999
 40
0.7999999999999999
 40
0.7999999999999999
 40
0.8999999999999999
 40
0.8999999999999999
 40
0.8999999999999999
 40
0.8999999999999999
 40
1.0
 40
1.0
 40
1.0
 40
1.0
 10
-0.43703
 20
2.24792
 30
0.0
 10
-0.39565
 20
2.14331
 30
0.0
 10
-0.23945
 20
2.18784
 30
0.0
 10
-0.16597
 20
2.08841
 30
0.0
 10
-0.16597
 20
2.08841
 30
0.0
 10
-0.21792
 20
2.04701
 30
0.0
 10
-0.4034
 20
2.14598
 30
0.0
 10
-0.39941
 20
2.02876
 30
0.0
 10
-0.39941
 20
2.02876
 30
0.0
 10
-0.3571
 20
1.79439
 30
0.0
 10
-0.03919
 20
1.88772
 30
0.0
 10
0.05562
 20
2.08199
 30
0.0
 10
0.05562
 20
2.08199
 30
0.0
 10
0.11945
 20
2.03115
 30
0.0
 10
0.29161
 20
1.99664
 30
0.0
 10
0.29161
 20
1.99664
 30
0.0
 10
0.29161
 20
1.99664
 30
0.0
 10
0.25705
 20
2.0051
 30
0.0
 10
0.17478
 20
2.05644
 30
0.0
 10
0.11729
 20
2.11298
 30
0.0
 10
0.11729
 20
2.11298
 30
0.0
 10
0.29381
 20
2.20353
 30
0.0
 10
0.28044
 20
2.27702
 30
0.0
 10
0.29695
 20
2.3249
 30
0.0
 10
0.29695
 20
2.3249
 30
0.0
 10
0.34428
 20
2.46227
 30
0.0
 10
0.0952
 20
2.56826
 30
0.0
 10
0.1043
 20
2.39141
 30
0.0
 10
0.1043
 20
2.39141
 30
0.0
 10
0.11329
 20
2.21445
 30
0.0
 10
0.04397
 20
2.28282
 30
0.0
 10
0.05724
 20
2.20412
 30
0.0
 10
0.05724
 20
2.20412
 30
0.0
 10
-0.02751
 20
2.69771
 30
0.0
 10
-0.29895
 20
2.60392
 30
0.0
 10
-0.19415
 20
2.32315
 30
0.0
 10
-0.19415
 20
2.32315
 30
0.0
 10
-0.31552
 20
2.50241
 30
0.0
 10
-0.48884
 20
2.37896
 30
0.0
 10
-0.43703
 20
2.24792
 30
0.0
  0
SPLINE
  5
64
330
1F
100
AcDbEntity
  8
Layer 1
100
AcDbSpline
210
0.0
220
0.0
230
1.0
 70
    11
 71
     3
 72
    16
 73
    12
 74
     0
 42
0.0000000001
 43
0.0000000001
 40
0.0
 40
0.0
 40
0.0
 40
0.0
 40
0.3333333333333333
 40
0.3333333333333333
 40
0.3333333333333333
 40
0.3333333333333333
 40
0.6666666666666666
 40
0.6666666666666666
 40
0.6666666666666666
 40
0.6666666666666666
 40
1.0
 40
1.0
 40
1.0
 40
1.0
 10
-0.21606
 20
2.30222
 30
0.0
 10
-0.21606
 20
2.30222
 30
0.0
 10
-0.21606
 20
2.30222
 30
0.0
 10
-0.21606
 20
2.30222
 30
0.0
 10
-0.21606
 20
2.30222
 30
0.0
 10
-0.09307
 20
2.43635
 30
0.0
 10
0.07591
 20
2.21249
 30
0.0
 10
0.06623
 20
2.13639
 30
0.0
 10
0.06623
 20
2.13639
 30
0.0
 10
-0.02083
 20
2.01273
 30
0.0
 10
-0.2983
 20
2.09882
 30
0.0
 10
-0.21606
 20
2.30222
 30
0.0
  0
SPLINE
  5
65
330
1F
100
AcDbEntity
  8
Layer 1
100
AcDbSpline
210
0.0
220
0.0
230
1.0
 70
    11
 71
     3
 72
    44
 73
    40
 74
     0
 42
0.0000000001
 43
0.0000000001
 40
0.0
 40
0.0
 40
0.0
 40
0.0
 40
0.1
 40
0.1
 40
0.1
 40
0.1
 40
0.2
 40
0.2
 40
0.2
 40
0.2
 40
0.3
 40
0.3
 40
0.3
 40
0.3
 40
0.4
 40
0.4
 40
0.4
 40
0.4
 40
0.5
 40
0.5
 40
0.5
 40
0.5
 40
0.6
 40
0.6
 40
0.6
 40
0.6
 40
0.7
 40
0.7
 40
0.7
 40
0.7
 40
0.7999999999999999
 40
0.7999999999999999
 40
0.7999999999999999
 40
0.7999999999999999
 40
0.8999999999999999
 40
0.8999999999999999
 40
0.8999999999999999
 40
0.8999999999999999
 40
1.0
 40
1.0
 40
1.0
 40
1.0
 10
-1.65756
 20
2.32315
 30
0.0
 10
-1.55279
 20
2.60392
 30
0.0
 10
-1.82409
 20
2.69771
 30
0.0
 10
-1.90884
 20
2.20412
 30
0.0
 10
-1.90884
 20
2.20412
 30
0.0
 10
-1.89558
 20
2.28282
 30
0.0
 10
-1.96503
 20
2.21445
 30
0.0
 10
-1.95594
 20
2.39141
 30
0.0
 10
-1.95594
 20
2.39141
 30
0.0
 10
-1.94684
 20
2.56826
 30
0.0
 10
-2.19592
 20
2.46227
 30
0.0
 10
-2.14866
 20
2.3249
 30
0.0
 10
-2.14866
 20
2.3249
 30
0.0
 10
-2.13212
 20
2.27702
 30
0.0
 10
-2.14555
 20
2.20353
 30
0.0
 10
-1.96903
 20
2.11298
 30
0.0
 10
-1.96903
 20
2.11298
 30
0.0
 10
-2.02643
 20
2.05644
 30
0.0
 10
-2.10869
 20
2.0051
 30
0.0
 10
-2.14321
 20
1.99664
 30
0.0
 10
-2.14321
 20
1.99664
 30
0.0
 10
-2.14321
 20
1.99664
 30
0.0
 10
-1.97106
 20
2.03115
 30
0.0
 10
-1.90733
 20
2.08199
 30
0.0
 10
-1.90733
 20
2.08199
 30
0.0
 10
-1.81245
 20
1.88772
 30
0.0
 10
-1.49457
 20
1.79439
 30
0.0
 10
-1.4523
 20
2.02876
 30
0.0
 10
-1.4523
 20
2.02876
 30
0.0
 10
-1.4482
 20
2.14598
 30
0.0
 10
-1.63372
 20
2.04701
 30
0.0
 10
-1.68571
 20
2.08841
 30
0.0
 10
-1.68571
 20
2.08841
 30
0.0
 10
-1.61225
 20
2.18784
 30
0.0
 10
-1.45595
 20
2.14331
 30
0.0
 10
-1.41465
 20
2.24792
 30
0.0
 10
-1.41465
 20
2.24792
 30
0.0
 10
-1.36283
 20
2.37896
 30
0.0
 10
-1.53605
 20
2.50241
 30
0.0
 10
-1.65756
 20
2.32315
 30
0.0
  0
SPLINE
  5
66
330
1F
100
AcDbEntity
  8
Layer 1
100
AcDbSpline
210
0.0
220
0.0
230
1.0
 70
    11
 71
     3
 72
    16
 73
    12
 74
     0
 42
0.0000000001
 43
0.0000000001
 40
0.0
 40
0.0
 40
0.0
 40
0.0
 40
0.3333333333333333
 40
0.3333333333333333
 40
0.3333333333333333
 40
0.3333333333333333
 40
0.6666666666666666
 40
0.6666666666666666
 40
0.6666666666666666
 40
0.6666666666666666
 40
1.0
 40
1.0
 40
1.0
 40
1.0
 10
-1.91784
 20
2.13639
 30
0.0
 10
-1.91784
 20
2.13639
 30
0.0
 10
-1.91784
 20
2.13639
 30
0.0
 10
-1.91784
 20
2.13639
 30
0.0
 10
-1.91784
 20
2.13639
 30
0.0
 10
-1.92752
 20
2.21249
 30
0.0
 10
-1.7586
 20
2.43635
 30
0.0
 10
-1.63558
 20
2.30222
 30
0.0
 10
-1.63558
 20
2.30222
 30
0.0
 10
-1.55331
 20
2.09882
 30
0.0
 10
-1.83078
 20
2.01273
 30
0.0
 10
-1.91784
 20
2.13639
 30
0.0
  0
SPLINE
  5
67
330
1F
100
AcDbEntity
  8
Layer 1
100
AcDbSpline
210
0.0
220
0.0
230
1.0
 70
    11
 71
     3
 72
    44
 73
    40
 74
     0
 42
0.0000000001
 43
0.0000000001
 40
0.0
 40
0.0
 40
0.0
 40
0.0
 40
0.1
 40
0.1
 40
0.1
 40
0.1
 40
0.2
 40
0.2
 40
0.2
 40
0.2
 40
0.3
 40
0.3
 40
0.3
 40
0.3
 40
0.4
 40
0.4
 40
0.4
 40
0.4
 40
0.5
 40
0.5
 40
0.5
 40
0.5
 40
0.6
 40
0.6
 40
0.6
 40
0.6
 40
0.7
 40
0.7
 40
0.7
 40
0.7
 40
0.7999999999999999
 40
0.7999999999999999
 40
0.7999999999999999
 40
0.7999999999999999
 40
0.8999999999999999
 40
0.8999999999999999
 40
0.8999999999999999
 40
0.8999999999999999
 40
1.0
 40
1.0
 40
1.0
 40
1.0
 10
-0.43703
 20
2.24792
 30
0.0
 10
-0.39572
 20
2.14331
 30
0.0
 10
-0.23945
 20
2.18784
 30
0.0
 10
-0.16597
 20
2.08841
 30
0.0
 10
-0.16597
 20
2.08841
 30
0.0
 10
-0.21792
 20
2.04701
 30
0.0
 10
-0.40347
 20
2.14598
 30
0.0
 10
-0.39941
 20
2.02876
 30
0.0
 10
-0.39941
 20
2.02876
 30
0.0
 10
-0.3571
 20
1.79439
 30
0.0
 10
-0.03926
 20
1.88772
 30
0.0
 10
0.05562
 20
2.08199
 30
0.0
 10
0.05562
 20
2.08199
 30
0.0
 10
0.11945
 20
2.03115
 30
0.0
 10
0.29161
 20
1.99664
 30
0.0
 10
0.29161
 20
1.99664
 30
0.0
 10
0.29161
 20
1.99664
 30
0.0
 10
0.25695
 20
2.0051
 30
0.0
 10
0.17471
 20
2.05644
 30
0.0
 10
0.11729
 20
2.11298
 30
0.0
 10
0.11729
 20
2.11298
 30
0.0
 10
0.29381
 20
2.20353
 30
0.0
 10
0.28044
 20
2.27702
 30
0.0
 10
0.29695
 20
2.3249
 30
0.0
 10
0.29695
 20
2.3249
 30
0.0
 10
0.34428
 20
2.46227
 30
0.0
 10
0.0952
 20
2.56826
 30
0.0
 10
0.10419
 20
2.39141
 30
0.0
 10
0.10419
 20
2.39141
 30
0.0
 10
0.11329
 20
2.21445
 30
0.0
 10
0.04397
 20
2.28282
 30
0.0
 10
0.05724
 20
2.20412
 30
0.0
 10
0.05724
 20
2.20412
 30
0.0
 10
-0.02751
 20
2.69771
 30
0.0
 10
-0.29895
 20
2.60392
 30
0.0
 10
-0.19415
 20
2.32315
 30
0.0
 10
-0.19415
 20
2.32315
 30
0.0
 10
-0.31559
 20
2.50241
 30
0.0
 10
-0.48884
 20
2.37896
 30
0.0
 10
-0.43703
 20
2.24792
 30
0.0
  0
SPLINE
  5
68
330
1F
100
AcDbEntity
  8
Layer 1
100
AcDbSpline
210
0.0
220
0.0
230
1.0
 70
    11
 71
     3
 72
    16
 73
    12
 74
     0
 42
0.0000000001
 43
0.0000000001
 40
0.0
 40
0.0
 40
0.0
 40
0.0
 40
0.3333333333333333
 40
0.3333333333333333
 40
0.3333333333333333
 40
0.3333333333333333
 40
0.6666666666666666
 40
0.6666666666666666
 40
0.6666666666666666
 40
0.6666666666666666
 40
1.0
 40
1.0
 40
1.0
 40
1.0
 10
-0.21606
 20
2.30222
 30
0.0
 10
-0.21606
 20
2.30222
 30
0.0
 10
-0.21606
 20
2.30222
 30
0.0
 10
-0.21606
 20
2.30222
 30
0.0
 10
-0.21606
 20
2.30222
 30
0.0
 10
-0.09307
 20
2.43635
 30
0.0
 10
0.07591
 20
2.21249
 30
0.0
 10
0.06623
 20
2.13639
 30
0.0
 10
0.06623
 20
2.13639
 30
0.0
 10
-0.02083
 20
2.01273
 30
0.0
 10
-0.29836
 20
2.09882
 30
0.0
 10
-0.21606
 20
2.30222
 30
0.0
  0
SPLINE
  5
69
330
1F
100
AcDbEntity
  8
Layer 1
100
AcDbSpline
210
0.0
220
0.0
230
1.0
 70
    11
 71
     3
 72
    16
 73
    12
 74
     0
 42
0.0000000001
 43
0.0000000001
 40
0.0
 40
0.0
 40
0.0
 40
0.0
 40
0.3333333333333333
 40
0.3333333333333333
 40
0.3333333333333333
 40
0.3333333333333333
 40
0.6666666666666666
 40
0.6666666666666666
 40
0.6666666666666666
 40
0.6666666666666666
 40
1.0
 40
1.0
 40
1.0
 40
1.0
 10
-0.25823
 20
1.82333
 30
0.0
 10
-0.26849
 20
1.81424
 30
0.0
 10
-0.30171
 20
1.77543
 30
0.0
 10
-0.30171
 20
1.77543
 30
0.0
 10
-0.30171
 20
1.77543
 30
0.0
 10
-0.30171
 20
1.77543
 30
0.0
 10
-0.36055
 20
1.84423
 30
0.0
 10
-0.43462
 20
1.85358
 30
0.0
 10
-0.43462
 20
1.85358
 30
0.0
 10
-0.3262
 20
1.84495
 30
0.0
 10
-0.25823
 20
1.82333
 30
0.0
 10
-0.25823
 20
1.82333
 30
0.0
  0
SPLINE
  5
6A
330
1F
100
AcDbEntity
  8
Layer 1
100
AcDbSpline
210
0.0
220
0.0
230
1.0
 70
    11
 71
     3
 72
    32
 73
    28
 74
     0
 42
0.0000000001
 43
0.0000000001
 40
0.0
 40
0.0
 40
0.0
 40
0.0
 40
0.1428571428571428
 40
0.1428571428571428
 40
0.1428571428571428
 40
0.1428571428571428
 40
0.2857142857142857
 40
0.2857142857142857
 40
0.2857142857142857
 40
0.2857142857142857
 40
0.4285714285714285
 40
0.4285714285714285
 40
0.4285714285714285
 40
0.4285714285714285
 40
0.5714285714285714
 40
0.5714285714285714
 40
0.5714285714285714
 40
0.5714285714285714
 40
0.7142857142857142
 40
0.7142857142857142
 40
0.7142857142857142
 40
0.7142857142857142
 40
0.857142857142857
 40
0.857142857142857
 40
0.857142857142857
 40
0.857142857142857
 40
1.0
 40
1.0
 40
1.0
 40
1.0
 10
-0.29251
 20
2.57131
 30
0.0
 10
-0.34759
 20
3.01611
 30
0.0
 10
-0.76735
 20
2.83025
 30
0.0
 10
-0.78402
 20
3.24559
 30
0.0
 10
-0.78402
 20
3.24559
 30
0.0
 10
-1.01884
 20
2.87743
 30
0.0
 10
-0.53032
 20
2.94979
 30
0.0
 10
-0.53746
 20
2.83006
 30
0.0
 10
-0.53746
 20
2.83006
 30
0.0
 10
-0.8707
 20
2.91615
 30
0.0
 10
-0.9828
 20
2.51826
 30
0.0
 10
-0.70292
 20
2.4595
 30
0.0
 10
-0.70292
 20
2.4595
 30
0.0
 10
-0.51751
 20
2.41892
 30
0.0
 10
-0.51262
 20
2.64182
 30
0.0
 10
-0.5881
 20
2.66247
 30
0.0
 10
-0.5881
 20
2.66247
 30
0.0
 10
-0.66358
 20
2.68311
 30
0.0
 10
-0.6918
 20
2.54904
 30
0.0
 10
-0.6366
 20
2.53723
 30
0.0
 10
-0.6366
 20
2.53723
 30
0.0
 10
-0.88444
 20
2.46992
 30
0.0
 10
-0.84793
 20
2.88855
 30
0.0
 10
-0.49391
 20
2.73234
 30
0.0
 10
-0.49391
 20
2.73234
 30
0.0
 10
-0.37347
 20
2.69084
 30
0.0
 10
-0.29251
 20
2.57131
 30
0.0
 10
-0.29251
 20
2.57131
 30
0.0
  0
SPLINE
  5
6B
330
1F
100
AcDbEntity
  8
Layer 1
100
AcDbSpline
210
0.0
220
0.0
230
1.0
 70
    11
 71
     3
 72
   144
 73
   140
 74
     0
 42
0.0000000001
 43
0.0000000001
 40
0.0
 40
0.0
 40
0.0
 40
0.0
 40
0.0285714285714286
 40
0.0285714285714286
 40
0.0285714285714286
 40
0.0285714285714286
 40
0.0571428571428571
 40
0.0571428571428571
 40
0.0571428571428571
 40
0.0571428571428571
 40
0.0857142857142857
 40
0.0857142857142857
 40
0.0857142857142857
 40
0.0857142857142857
 40
0.1142857142857143
 40
0.1142857142857143
 40
0.1142857142857143
 40
0.1142857142857143
 40
0.1428571428571428
 40
0.1428571428571428
 40
0.1428571428571428
 40
0.1428571428571428
 40
0.1714285714285714
 40
0.1714285714285714
 40
0.1714285714285714
 40
0.1714285714285714
 40
0.2
 40
0.2
 40
0.2
 40
0.2
 40
0.2285714285714286
 40
0.2285714285714286
 40
0.2285714285714286
 40
0.2285714285714286
 40
0.2571428571428572
 40
0.2571428571428572
 40
0.2571428571428572
 40
0.2571428571428572
 40
0.2857142857142858
 40
0.2857142857142858
 40
0.2857142857142858
 40
0.2857142857142858
 40
0.3142857142857143
 40
0.3142857142857143
 40
0.3142857142857143
 40
0.3142857142857143
 40
0.3428571428571429
 40
0.3428571428571429
 40
0.3428571428571429
 40
0.3428571428571429
 40
0.3714285714285715
 40
0.3714285714285715
 40
0.3714285714285715
 40
0.3714285714285715
 40
0.4000000000000001
 40
0.4000000000000001
 40
0.4000000000000001
 40
0.4000000000000001
 40
0.4285714285714287
 40
0.4285714285714287
 40
0.4285714285714287
 40
0.4285714285714287
 40
0.4571428571428572
 40
0.4571428571428572
 40
0.4571428571428572
 40
0.4571428571428572
 40
0.4857142857142858
 40
0.4857142857142858
 40
0.4857142857142858
 40
0.4857142857142858
 40
0.5142857142857143
 40
0.5142857142857143
 40
0.5142857142857143
 40
0.5142857142857143
 40
0.5428571428571429
 40
0.5428571428571429
 40
0.5428571428571429
 40
0.5428571428571429
 40
0.5714285714285715
 40
0.5714285714285715
 40
0.5714285714285715
 40
0.5714285714285715
 40
0.6000000000000001
 40
0.6000000000000001
 40
0.6000000000000001
 40
0.6000000000000001
 40
0.6285714285714287
 40
0.6285714285714287
 40
0.6285714285714287
 40
0.6285714285714287
 40
0.6571428571428573
 40
0.6571428571428573
 40
0.6571428571428573
 40
0.6571428571428573
 40
0.6857142857142858
 40
0.6857142857142858
 40
0.6857142857142858
 40
0.6857142857142858
 40
0.7142857142857144
 40
0.7142857142857144
 40
0.7142857142857144
 40
0.7142857142857144
 40
0.742857142857143
 40
0.742857142857143
 40
0.742857142857143
 40
0.742857142857143
 40
0.7714285714285716
 40
0.7714285714285716
 40
0.7714285714285716
 40
0.7714285714285716
 40
0.8000000000000002
 40
0.8000000000000002
 40
0.8000000000000002
 40
0.8000000000000002
 40
0.8285714285714287
 40
0.8285714285714287
 40
0.8285714285714287
 40
0.8285714285714287
 40
0.8571428571428573
 40
0.8571428571428573
 40
0.8571428571428573
 40
0.8571428571428573
 40
0.8857142857142859
 40
0.8857142857142859
 40
0.8857142857142859
 40
0.8857142857142859
 40
0.9142857142857145
 40
0.9142857142857145
 40
0.9142857142857145
 40
0.9142857142857145
 40
0.9428571428571431
 40
0.9428571428571431
 40
0.9428571428571431
 40
0.9428571428571431
 40
0.9714285714285716
 40
0.9714285714285716
 40
0.9714285714285716
 40
0.9714285714285716
 40
1.0
 40
1.0
 40
1.0
 40
1.0
 10
0.83859
 20
-2.46783
 30
0.0
 10
0.85791
 20
-2.52658
 30
0.0
 10
0.89812
 20
-2.68601
 30
0.0
 10
0.85061
 20
-2.76122
 30
0.0
 10
0.85061
 20
-2.76122
 30
0.0
 10
0.97735
 20
-2.82113
 30
0.0
 10
1.63961
 20
-3.07813
 30
0.0
 10
1.63961
 20
-3.07813
 30
0.0
 10
1.63961
 20
-3.07813
 30
0.0
 10
1.63961
 20
-3.07813
 30
0.0
 10
1.64953
 20
-3.00785
 30
0.0
 10
1.69776
 20
-2.96703
 30
0.0
 10
1.69776
 20
-2.96703
 30
0.0
 10
1.60064
 20
-2.89947
 30
0.0
 10
1.19942
 20
-2.8491
 30
0.0
 10
1.36651
 20
-2.83849
 30
0.0
 10
1.36651
 20
-2.83849
 30
0.0
 10
1.53367
 20
-2.82781
 30
0.0
 10
2.11754
 20
-2.78127
 30
0.0
 10
2.36421
 20
-2.50336
 30
0.0
 10
2.36421
 20
-2.50336
 30
0.0
 10
2.83581
 20
-2.0425
 30
0.0
 10
2.87478
 20
-1.58525
 30
0.0
 10
2.99184
 20
-1.54301
 30
0.0
 10
2.99184
 20
-1.54301
 30
0.0
 10
2.83392
 20
-1.53702
 30
0.0
 10
2.81896
 20
-1.74202
 30
0.0
 10
2.7718
 20
-1.73293
 30
0.0
 10
2.7718
 20
-1.73293
 30
0.0
 10
2.72464
 20
-1.72394
 30
0.0
 10
2.78276
 20
-1.55528
 30
0.0
 10
2.72522
 20
-1.55528
 30
0.0
 10
2.72522
 20
-1.55528
 30
0.0
 10
2.61178
 20
-1.68139
 30
0.0
 10
2.72471
 20
-1.92699
 30
0.0
 10
2.60837
 20
-2.06111
 30
0.0
 10
2.60837
 20
-2.06111
 30
0.0
 10
2.49202
 20
-2.19529
 30
0.0
 10
2.49123
 20
-1.95786
 30
0.0
 10
2.52744
 20
-1.8841
 30
0.0
 10
2.52744
 20
-1.8841
 30
0.0
 10
2.56368
 20
-1.81037
 30
0.0
 10
2.71003
 20
-1.52661
 30
0.0
 10
2.58373
 20
-1.2675
 30
0.0
 10
2.58373
 20
-1.2675
 30
0.0
 10
2.51483
 20
-1.12336
 30
0.0
 10
2.46825
 20
-1.26358
 30
0.0
 10
2.48982
 20
-1.31057
 30
0.0
 10
2.48982
 20
-1.31057
 30
0.0
 10
2.51135
 20
-1.35759
 30
0.0
 10
2.56981
 20
-1.68308
 30
0.0
 10
2.47084
 20
-1.54301
 30
0.0
 10
2.47084
 20
-1.54301
 30
0.0
 10
2.42801
 20
-1.36469
 30
0.0
 10
2.35977
 20
-1.10938
 30
0.0
 10
2.10587
 20
-1.24649
 30
0.0
 10
2.10587
 20
-1.24649
 30
0.0
 10
2.31443
 20
-1.23037
 30
0.0
 10
2.2735
 20
-1.35453
 30
0.0
 10
2.34392
 20
-1.39504
 30
0.0
 10
2.34392
 20
-1.39504
 30
0.0
 10
2.41441
 20
-1.43545
 30
0.0
 10
2.37472
 20
-1.48299
 30
0.0
 10
2.42836
 20
-1.54094
 30
0.0
 10
2.42836
 20
-1.54094
 30
0.0
 10
2.485
 20
-1.62152
 30
0.0
 10
2.49299
 20
-1.94232
 30
0.0
 10
2.42705
 20
-2.13876
 30
0.0
 10
2.42705
 20
-2.13876
 30
0.0
 10
2.37124
 20
-2.23808
 30
0.0
 10
2.47638
 20
-2.30843
 30
0.0
 10
2.30957
 20
-2.43773
 30
0.0
 10
2.30957
 20
-2.43773
 30
0.0
 10
2.09012
 20
-2.57412
 30
0.0
 10
2.12974
 20
-2.64168
 30
0.0
 10
1.91253
 20
-2.70872
 30
0.0
 10
1.91253
 20
-2.70872
 30
0.0
 10
1.71957
 20
-2.7266
 30
0.0
 10
1.88007
 20
-2.57894
 30
0.0
 10
1.89409
 20
-2.5694
 30
0.0
 10
1.89409
 20
-2.5694
 30
0.0
 10
2.00761
 20
-2.44327
 30
0.0
 10
2.35264
 20
-2.53164
 30
0.0
 10
2.31808
 20
-2.18379
 30
0.0
 10
2.31808
 20
-2.18379
 30
0.0
 10
2.24825
 20
-2.35015
 30
0.0
 10
2.17211
 20
-2.38319
 30
0.0
 10
2.09305
 20
-2.3362
 30
0.0
 10
2.09305
 20
-2.3362
 30
0.0
 10
2.22765
 20
-2.2532
 30
0.0
 10
2.23984
 20
-2.11375
 30
0.0
 10
2.22214
 20
-2.00878
 30
0.0
 10
2.22214
 20
-2.00878
 30
0.0
 10
2.16729
 20
-2.17321
 30
0.0
 10
2.07527
 20
-2.08577
 30
0.0
 10
2.00461
 20
-2.27512
 30
0.0
 10
2.00461
 20
-2.27512
 30
0.0
 10
1.96231
 20
-2.41871
 30
0.0
 10
1.81768
 20
-2.48375
 30
0.0
 10
1.84125
 20
-2.4308
 30
0.0
 10
1.84125
 20
-2.4308
 30
0.0
 10
1.86491
 20
-2.37792
 30
0.0
 10
1.93319
 20
-2.37268
 30
0.0
 10
1.8952
 20
-2.25903
 30
0.0
 10
1.8952
 20
-2.25903
 30
0.0
 10
1.75811
 20
-2.26561
 30
0.0
 10
1.70692
 20
-2.54438
 30
0.0
 10
1.47817
 20
-2.63981
 30
0.0
 10
1.47817
 20
-2.63981
 30
0.0
 10
1.66837
 20
-2.68742
 30
0.0
 10
1.74661
 20
-2.49702
 30
0.0
 10
1.91655
 20
-2.47834
 30
0.0
 10
1.91655
 20
-2.47834
 30
0.0
 10
1.80449
 20
-2.6158
 30
0.0
 10
1.34491
 20
-2.964
 30
0.0
 10
0.95679
 20
-2.72422
 30
0.0
 10
0.95679
 20
-2.72422
 30
0.0
 10
0.9057
 20
-2.68494
 30
0.0
 10
0.91648
 20
-2.62221
 30
0.0
 10
0.98431
 20
-2.61329
 30
0.0
 10
0.98431
 20
-2.61329
 30
0.0
 10
1.05204
 20
-2.6043
 30
0.0
 10
1.13903
 20
-2.76897
 30
0.0
 10
1.29516
 20
-2.733
 30
0.0
 10
1.29516
 20
-2.733
 30
0.0
 10
1.44878
 20
-2.67819
 30
0.0
 10
1.3856
 20
-2.60605
 30
0.0
 10
1.44006
 20
-2.58356
 30
0.0
 10
1.44006
 20
-2.58356
 30
0.0
 10
1.31759
 20
-2.64192
 30
0.0
 10
1.10276
 20
-2.58221
 30
0.0
 10
1.17807
 20
-2.57226
 30
0.0
 10
1.17807
 20
-2.57226
 30
0.0
 10
1.25337
 20
-2.56227
 30
0.0
 10
1.43148
 20
-2.57708
 30
0.0
 10
1.48092
 20
-2.37123
 30
0.0
 10
1.48092
 20
-2.37123
 30
0.0
 10
1.40754
 20
-2.45378
 30
0.0
 10
1.06486
 20
-2.55658
 30
0.0
 10
0.83859
 20
-2.46783
 30
0.0
  0
SPLINE
  5
6C
330
1F
100
AcDbEntity
  8
Layer 1
100
AcDbSpline
210
0.0
220
0.0
230
1.0
 70
    11
 71
     3
 72
    16
 73
    12
 74
     0
 42
0.0000000001
 43
0.0000000001
 40
0.0
 40
0.0
 40
0.0
 40
0.0
 40
0.3333333333333333
 40
0.3333333333333333
 40
0.3333333333333333
 40
0.3333333333333333
 40
0.6666666666666666
 40
0.6666666666666666
 40
0.6666666666666666
 40
0.6666666666666666
 40
1.0
 40
1.0
 40
1.0
 40
1.0
 10
1.08942
 20
-2.04767
 30
0.0
 10
1.11692
 20
-2.13983
 30
0.0
 10
1.16866
 20
-2.18272
 30
0.0
 10
1.22695
 20
-2.10224
 30
0.0
 10
1.22695
 20
-2.10224
 30
0.0
 10
1.24656
 20
-2.07671
 30
0.0
 10
1.28517
 20
-2.07919
 30
0.0
 10
1.26984
 20
-2.10806
 30
0.0
 10
1.26984
 20
-2.10806
 30
0.0
 10
1.22685
 20
-2.21717
 30
0.0
 10
1.05136
 20
-2.25197
 30
0.0
 10
1.08942
 20
-2.04767
 30
0.0
  0
SPLINE
  5
6D
330
1F
100
AcDbEntity
  8
Layer 1
100
AcDbSpline
210
0.0
220
0.0
230
1.0
 70
    11
 71
     3
 72
    16
 73
    12
 74
     0
 42
0.0000000001
 43
0.0000000001
 40
0.0
 40
0.0
 40
0.0
 40
0.0
 40
0.3333333333333333
 40
0.3333333333333333
 40
0.3333333333333333
 40
0.3333333333333333
 40
0.6666666666666666
 40
0.6666666666666666
 40
0.6666666666666666
 40
0.6666666666666666
 40
1.0
 40
1.0
 40
1.0
 40
1.0
 10
0.98628
 20
-1.84679
 30
0.0
 10
1.01377
 20
-1.93891
 30
0.0
 10
1.06538
 20
-1.9819
 30
0.0
 10
1.1237
 20
-1.90136
 30
0.0
 10
1.1237
 20
-1.90136
 30
0.0
 10
1.14327
 20
-1.87583
 30
0.0
 10
1.18192
 20
-1.87828
 30
0.0
 10
1.16663
 20
-1.90721
 30
0.0
 10
1.16663
 20
-1.90721
 30
0.0
 10
1.1236
 20
-2.01636
 30
0.0
 10
0.94818
 20
-2.05108
 30
0.0
 10
0.98628
 20
-1.84679
 30
0.0
  0
SPLINE
  5
6E
330
1F
100
AcDbEntity
  8
Layer 1
100
AcDbSpline
210
0.0
220
0.0
230
1.0
 70
    11
 71
     3
 72
    16
 73
    12
 74
     0
 42
0.0000000001
 43
0.0000000001
 40
0.0
 40
0.0
 40
0.0
 40
0.0
 40
0.3333333333333333
 40
0.3333333333333333
 40
0.3333333333333333
 40
0.3333333333333333
 40
0.6666666666666666
 40
0.6666666666666666
 40
0.6666666666666666
 40
0.6666666666666666
 40
1.0
 40
1.0
 40
1.0
 40
1.0
 10
1.15006
 20
-1.69482
 30
0.0
 10
1.17755
 20
-1.78698
 30
0.0
 10
1.22919
 20
-1.82998
 30
0.0
 10
1.28748
 20
-1.74946
 30
0.0
 10
1.28748
 20
-1.74946
 30
0.0
 10
1.30708
 20
-1.72387
 30
0.0
 10
1.3457
 20
-1.72635
 30
0.0
 10
1.33037
 20
-1.75529
 30
0.0
 10
1.33037
 20
-1.75529
 30
0.0
 10
1.28741
 20
-1.86439
 30
0.0
 10
1.11192
 20
-1.89912
 30
0.0
 10
1.15006
 20
-1.69482
 30
0.0
  0
SPLINE
  5
6F
330
1F
100
AcDbEntity
  8
Layer 1
100
AcDbSpline
210
0.0
220
0.0
230
1.0
 70
    11
 71
     3
 72
    16
 73
    12
 74
     0
 42
0.0000000001
 43
0.0000000001
 40
0.0
 40
0.0
 40
0.0
 40
0.0
 40
0.3333333333333333
 40
0.3333333333333333
 40
0.3333333333333333
 40
0.3333333333333333
 40
0.6666666666666666
 40
0.6666666666666666
 40
0.6666666666666666
 40
0.6666666666666666
 40
1.0
 40
1.0
 40
1.0
 40
1.0
 10
1.24848
 20
-1.88871
 30
0.0
 10
1.27601
 20
-1.98084
 30
0.0
 10
1.32762
 20
-2.02383
 30
0.0
 10
1.38594
 20
-1.94325
 30
0.0
 10
1.38594
 20
-1.94325
 30
0.0
 10
1.40551
 20
-1.91772
 30
0.0
 10
1.44423
 20
-1.9202
 30
0.0
 10
1.42884
 20
-1.94907
 30
0.0
 10
1.42884
 20
-1.94907
 30
0.0
 10
1.38584
 20
-2.05828
 30
0.0
 10
1.21041
 20
-2.09297
 30
0.0
 10
1.24848
 20
-1.88871
 30
0.0
  0
SPLINE
  5
70
330
1F
100
AcDbEntity
  8
Layer 1
100
AcDbSpline
210
0.0
220
0.0
230
1.0
 70
    11
 71
     3
 72
    24
 73
    20
 74
     0
 42
0.0000000001
 43
0.0000000001
 40
0.0
 40
0.0
 40
0.0
 40
0.0
 40
0.2
 40
0.2
 40
0.2
 40
0.2
 40
0.4
 40
0.4
 40
0.4
 40
0.4
 40
0.6000000000000001
 40
0.6000000000000001
 40
0.6000000000000001
 40
0.6000000000000001
 40
0.8
 40
0.8
 40
0.8
 40
0.8
 40
1.0
 40
1.0
 40
1.0
 40
1.0
 10
-0.6982
 20
-1.89929
 30
0.0
 10
-0.69028
 20
-1.88534
 30
0.0
 10
-0.72287
 20
-1.84321
 30
0.0
 10
-0.75384
 20
-1.92778
 30
0.0
 10
-0.75384
 20
-1.92778
 30
0.0
 10
-0.80324
 20
-2.13359
 30
0.0
 10
-0.52612
 20
-2.50487
 30
0.0
 10
-0.28407
 20
-2.36555
 30
0.0
 10
-0.28407
 20
-2.36555
 30
0.0
 10
-0.4866
 20
-2.36937
 30
0.0
 10
-0.68043
 20
-2.28011
 30
0.0
 10
-0.7023
 20
-2.01287
 30
0.0
 10
-0.7023
 20
-2.01287
 30
0.0
 10
-0.62413
 20
-2.08302
 30
0.0
 10
-0.56849
 20
-2.11196
 30
0.0
 10
-0.4648
 20
-2.05615
 30
0.0
 10
-0.4648
 20
-2.05615
 30
0.0
 10
-0.53914
 20
-2.07368
 30
0.0
 10
-0.73754
 20
-1.99269
 30
0.0
 10
-0.6982
 20
-1.89929
 30
0.0
  0
SPLINE
  5
71
330
1F
100
AcDbEntity
  8
Layer 1
100
AcDbSpline
210
0.0
220
0.0
230
1.0
 70
    11
 71
     3
 72
    12
 73
     8
 74
     0
 42
0.0000000001
 43
0.0000000001
 40
0.0
 40
0.0
 40
0.0
 40
0.0
 40
0.5
 40
0.5
 40
0.5
 40
0.5
 40
1.0
 40
1.0
 40
1.0
 40
1.0
 10
-0.50952
 20
-2.84748
 30
0.0
 10
-0.5338
 20
-2.54804
 30
0.0
 10
-0.72873
 20
-2.59496
 30
0.0
 10
-0.6302
 20
-2.41327
 30
0.0
 10
-0.6302
 20
-2.41327
 30
0.0
 10
-0.54796
 20
-2.45598
 30
0.0
 10
-0.40482
 20
-2.56736
 30
0.0
 10
-0.50952
 20
-2.84748
 30
0.0
  0
SPLINE
  5
72
330
1F
100
AcDbEntity
  8
Layer 1
100
AcDbSpline
210
0.0
220
0.0
230
1.0
 70
    11
 71
     3
 72
   128
 73
   124
 74
     0
 42
0.0000000001
 43
0.0000000001
 40
0.0
 40
0.0
 40
0.0
 40
0.0
 40
0.032258064516129
 40
0.032258064516129
 40
0.032258064516129
 40
0.032258064516129
 40
0.0645161290322581
 40
0.0645161290322581
 40
0.0645161290322581
 40
0.0645161290322581
 40
0.0967741935483871
 40
0.0967741935483871
 40
0.0967741935483871
 40
0.0967741935483871
 40
0.1290322580645161
 40
0.1290322580645161
 40
0.1290322580645161
 40
0.1290322580645161
 40
0.1612903225806452
 40
0.1612903225806452
 40
0.1612903225806452
 40
0.1612903225806452
 40
0.1935483870967742
 40
0.1935483870967742
 40
0.1935483870967742
 40
0.1935483870967742
 40
0.2258064516129032
 40
0.2258064516129032
 40
0.2258064516129032
 40
0.2258064516129032
 40
0.2580645161290323
 40
0.2580645161290323
 40
0.2580645161290323
 40
0.2580645161290323
 40
0.2903225806451613
 40
0.2903225806451613
 40
0.2903225806451613
 40
0.2903225806451613
 40
0.3225806451612903
 40
0.3225806451612903
 40
0.3225806451612903
 40
0.3225806451612903
 40
0.3548387096774193
 40
0.3548387096774193
 40
0.3548387096774193
 40
0.3548387096774193
 40
0.3870967741935483
 40
0.3870967741935483
 40
0.3870967741935483
 40
0.3870967741935483
 40
0.4193548387096773
 40
0.4193548387096773
 40
0.4193548387096773
 40
0.4193548387096773
 40
0.4516129032258063
 40
0.4516129032258063
 40
0.4516129032258063
 40
0.4516129032258063
 40
0.4838709677419353
 40
0.4838709677419353
 40
0.4838709677419353
 40
0.4838709677419353
 40
0.5161290322580643
 40
0.5161290322580643
 40
0.5161290322580643
 40
0.5161290322580643
 40
0.5483870967741933
 40
0.5483870967741933
 40
0.5483870967741933
 40
0.5483870967741933
 40
0.5806451612903223
 40
0.5806451612903223
 40
0.5806451612903223
 40
0.5806451612903223
 40
0.6129032258064513
 40
0.6129032258064513
 40
0.6129032258064513
 40
0.6129032258064513
 40
0.6451612903225803
 40
0.6451612903225803
 40
0.6451612903225803
 40
0.6451612903225803
 40
0.6774193548387093
 40
0.6774193548387093
 40
0.6774193548387093
 40
0.6774193548387093
 40
0.7096774193548383
 40
0.7096774193548383
 40
0.7096774193548383
 40
0.7096774193548383
 40
0.7419354838709673
 40
0.7419354838709673
 40
0.7419354838709673
 40
0.7419354838709673
 40
0.7741935483870963
 40
0.7741935483870963
 40
0.7741935483870963
 40
0.7741935483870963
 40
0.8064516129032253
 40
0.8064516129032253
 40
0.8064516129032253
 40
0.8064516129032253
 40
0.8387096774193543
 40
0.8387096774193543
 40
0.8387096774193543
 40
0.8387096774193543
 40
0.8709677419354833
 40
0.8709677419354833
 40
0.8709677419354833
 40
0.8709677419354833
 40
0.9032258064516123
 40
0.9032258064516123
 40
0.9032258064516123
 40
0.9032258064516123
 40
0.9354838709677413
 40
0.9354838709677413
 40
0.9354838709677413
 40
0.9354838709677413
 40
0.9677419354838703
 40
0.9677419354838703
 40
0.9677419354838703
 40
0.9677419354838703
 40
1.0
 40
1.0
 40
1.0
 40
1.0
 10
-0.87221
 20
-2.81314
 30
0.0
 10
-0.80762
 20
-2.92517
 30
0.0
 10
-0.86736
 20
-3.03845
 30
0.0
 10
-0.85502
 20
-3.10197
 30
0.0
 10
-0.85502
 20
-3.10197
 30
0.0
 10
-0.79167
 20
-3.07448
 30
0.0
 10
-0.72731
 20
-2.9241
 30
0.0
 10
-0.71539
 20
-2.91301
 30
0.0
 10
-0.71539
 20
-2.91301
 30
0.0
 10
-0.68318
 20
-2.9682
 30
0.0
 10
-0.66162
 20
-3.14531
 30
0.0
 10
-0.86725
 20
-3.2702
 30
0.0
 10
-0.86725
 20
-3.2702
 30
0.0
 10
-0.91611
 20
-3.29211
 30
0.0
 10
-0.89047
 20
-3.48597
 30
0.0
 10
-0.89047
 20
-3.48597
 30
0.0
 10
-0.89047
 20
-3.48597
 30
0.0
 10
-0.88854
 20
-3.52968
 30
0.0
 10
-0.67791
 20
-3.7605
 30
0.0
 10
-0.67791
 20
-3.7605
 30
0.0
 10
-0.67791
 20
-3.7605
 30
0.0
 10
-0.6438
 20
-3.71386
 30
0.0
 10
-0.51778
 20
-3.23364
 30
0.0
 10
-0.20893
 20
-3.26551
 30
0.0
 10
-0.20893
 20
-3.26551
 30
0.0
 10
-0.24755
 20
-3.36449
 30
0.0
 10
-0.26626
 20
-3.42633
 30
0.0
 10
-0.3869
 20
-3.44042
 30
0.0
 10
-0.3869
 20
-3.44042
 30
0.0
 10
-0.29075
 20
-3.4583
 30
0.0
 10
-0.26767
 20
-3.51652
 30
0.0
 10
-0.35745
 20
-3.5476
 30
0.0
 10
-0.35745
 20
-3.5476
 30
0.0
 10
-0.57759
 20
-3.59207
 30
0.0
 10
-0.70461
 20
-3.90954
 30
0.0
 10
-0.49935
 20
-4.11042
 30
0.0
 10
-0.49935
 20
-4.11042
 30
0.0
 10
-0.45388
 20
-4.17905
 30
0.0
 10
-0.09831
 20
-4.23166
 30
0.0
 10
-0.19801
 20
-3.9268
 30
0.0
 10
-0.19801
 20
-3.9268
 30
0.0
 10
-0.18909
 20
-3.86441
 30
0.0
 10
-0.00715
 20
-3.87853
 30
0.0
 10
-0.06489
 20
-3.64489
 30
0.0
 10
-0.06489
 20
-3.64489
 30
0.0
 10
-0.12418
 20
-3.80688
 30
0.0
 10
-0.2101
 20
-3.80867
 30
0.0
 10
-0.2522
 20
-3.86499
 30
0.0
 10
-0.2522
 20
-3.86499
 30
0.0
 10
-0.31559
 20
-3.95009
 30
0.0
 10
-0.24545
 20
-4.1189
 30
0.0
 10
-0.43345
 20
-4.10171
 30
0.0
 10
-0.43345
 20
-4.10171
 30
0.0
 10
-0.5533
 20
-4.05051
 30
0.0
 10
-0.46304
 20
-3.9217
 30
0.0
 10
-0.40882
 20
-3.89721
 30
0.0
 10
-0.40882
 20
-3.89721
 30
0.0
 10
-0.25692
 20
-3.82923
 30
0.0
 10
-0.21606
 20
-3.64578
 30
0.0
 10
-0.13796
 20
-3.59903
 30
0.0
 10
-0.13796
 20
-3.59903
 30
0.0
 10
-0.41925
 20
-3.60182
 30
0.0
 10
-0.42794
 20
-3.82513
 30
0.0
 10
-0.49249
 20
-3.82985
 30
0.0
 10
-0.49249
 20
-3.82985
 30
0.0
 10
-0.52285
 20
-3.83189
 30
0.0
 10
-0.50424
 20
-3.66856
 30
0.0
 10
-0.40568
 20
-3.61719
 30
0.0
 10
-0.40568
 20
-3.61719
 30
0.0
 10
-0.19101
 20
-3.48724
 30
0.0
 10
-0.05521
 20
-3.51518
 30
0.0
 10
-0.00057
 20
-3.47921
 30
0.0
 10
-0.00057
 20
-3.47921
 30
0.0
 10
0.1084
 20
-3.43418
 30
0.0
 10
0.07966
 20
-3.33273
 30
0.0
 10
0.12586
 20
-3.30548
 30
0.0
 10
0.12586
 20
-3.30548
 30
0.0
 10
-0.08084
 20
-3.2639
 30
0.0
 10
-0.10203
 20
-3.42182
 30
0.0
 10
-0.2182
 20
-3.38354
 30
0.0
 10
-0.2182
 20
-3.38354
 30
0.0
 10
-0.10499
 20
-3.18269
 30
0.0
 10
0.07136
 20
-3.24181
 30
0.0
 10
0.12593
 20
-3.19055
 30
0.0
 10
0.12593
 20
-3.19055
 30
0.0
 10
0.1732
 20
-3.15741
 30
0.0
 10
0.24823
 20
-3.10153
 30
0.0
 10
0.17544
 20
-2.9713
 30
0.0
 10
0.17544
 20
-2.9713
 30
0.0
 10
0.1692
 20
-3.08327
 30
0.0
 10
0.07198
 20
-3.18803
 30
0.0
 10
-0.1298
 20
-3.19758
 30
0.0
 10
-0.1298
 20
-3.19758
 30
0.0
 10
-0.33165
 20
-3.20702
 30
0.0
 10
-0.4034
 20
-3.24332
 30
0.0
 10
-0.54999
 20
-3.36618
 30
0.0
 10
-0.54999
 20
-3.36618
 30
0.0
 10
-0.60601
 20
-3.24715
 30
0.0
 10
-0.3087
 20
-3.09091
 30
0.0
 10
-0.2911
 20
-2.92
 30
0.0
 10
-0.2911
 20
-2.92
 30
0.0
 10
-0.63271
 20
-2.91549
 30
0.0
 10
-0.61928
 20
-3.3926
 30
0.0
 10
-0.63891
 20
-3.47563
 30
0.0
 10
-0.63891
 20
-3.47563
 30
0.0
 10
-0.65858
 20
-3.55869
 30
0.0
 10
-0.70444
 20
-3.63186
 30
0.0
 10
-0.70444
 20
-3.63186
 30
0.0
 10
-0.70444
 20
-3.63186
 30
0.0
 10
-0.79353
 20
-3.567
 30
0.0
 10
-0.8285
 20
-3.52
 30
0.0
 10
-0.83342
 20
-3.45351
 30
0.0
 10
-0.83342
 20
-3.45351
 30
0.0
 10
-0.83466
 20
-3.38664
 30
0.0
 10
-0.84083
 20
-3.35485
 30
0.0
 10
-0.81124
 20
-3.33183
 30
0.0
 10
-0.81124
 20
-3.33183
 30
0.0
 10
-0.78171
 20
-3.30875
 30
0.0
 10
-0.49969
 20
-2.99366
 30
0.0
 10
-0.63564
 20
-2.70513
 30
0.0
 10
-0.63564
 20
-2.70513
 30
0.0
 10
-0.77451
 20
-2.78482
 30
0.0
 10
-0.87221
 20
-2.81314
 30
0.0
 10
-0.87221
 20
-2.81314
 30
0.0
  0
SPLINE
  5
73
330
1F
100
AcDbEntity
  8
Layer 1
100
AcDbSpline
210
0.0
220
0.0
230
1.0
 70
    11
 71
     3
 72
    12
 73
     8
 74
     0
 42
0.0000000001
 43
0.0000000001
 40
0.0
 40
0.0
 40
0.0
 40
0.0
 40
0.5
 40
0.5
 40
0.5
 40
0.5
 40
1.0
 40
1.0
 40
1.0
 40
1.0
 10
-0.44361
 20
-4.22745
 30
0.0
 10
-0.42663
 20
-4.29808
 30
0.0
 10
-0.29127
 20
-4.42375
 30
0.0
 10
-0.24445
 20
-4.2126
 30
0.0
 10
-0.24445
 20
-4.2126
 30
0.0
 10
-0.36589
 20
-4.26504
 30
0.0
 10
-0.44361
 20
-4.22745
 30
0.0
 10
-0.44361
 20
-4.22745
 30
0.0
  0
SPLINE
  5
74
330
1F
100
AcDbEntity
  8
Layer 1
100
AcDbSpline
210
0.0
220
0.0
230
1.0
 70
    11
 71
     3
 72
    44
 73
    40
 74
     0
 42
0.0000000001
 43
0.0000000001
 40
0.0
 40
0.0
 40
0.0
 40
0.0
 40
0.1
 40
0.1
 40
0.1
 40
0.1
 40
0.2
 40
0.2
 40
0.2
 40
0.2
 40
0.3
 40
0.3
 40
0.3
 40
0.3
 40
0.4
 40
0.4
 40
0.4
 40
0.4
 40
0.5
 40
0.5
 40
0.5
 40
0.5
 40
0.6
 40
0.6
 40
0.6
 40
0.6
 40
0.7
 40
0.7
 40
0.7
 40
0.7
 40
0.7999999999999999
 40
0.7999999999999999
 40
0.7999999999999999
 40
0.7999999999999999
 40
0.8999999999999999
 40
0.8999999999999999
 40
0.8999999999999999
 40
0.8999999999999999
 40
1.0
 40
1.0
 40
1.0
 40
1.0
 10
-0.17779
 20
-4.15211
 30
0.0
 10
-0.10203
 20
-4.10181
 30
0.0
 10
-0.1186
 20
-3.96218
 30
0.0
 10
-0.13579
 20
-3.93383
 30
0.0
 10
-0.13579
 20
-3.93383
 30
0.0
 10
-0.10444
 20
-3.91047
 30
0.0
 10
-0.07692
 20
-3.90113
 30
0.0
 10
-0.06262
 20
-3.92225
 30
0.0
 10
-0.06262
 20
-3.92225
 30
0.0
 10
-0.01125
 20
-4.02078
 30
0.0
 10
-0.08067
 20
-4.16213
 30
0.0
 10
-0.03723
 20
-4.17174
 30
0.0
 10
-0.03723
 20
-4.17174
 30
0.0
 10
0.00611
 20
-4.18139
 30
0.0
 10
-0.00463
 20
-4.08503
 30
0.0
 10
0.03808
 20
-4.03156
 30
0.0
 10
0.03808
 20
-4.03156
 30
0.0
 10
0.08073
 20
-3.97796
 30
0.0
 10
0.13982
 20
-3.87436
 30
0.0
 10
0.20996
 20
-3.86892
 30
0.0
 10
0.20996
 20
-3.86892
 30
0.0
 10
0.20596
 20
-3.96907
 30
0.0
 10
0.09141
 20
-4.11638
 30
0.0
 10
0.12273
 20
-4.15056
 30
0.0
 10
0.12273
 20
-4.15056
 30
0.0
 10
0.18726
 20
-4.11707
 30
0.0
 10
0.27176
 20
-4.03125
 30
0.0
 10
0.28503
 20
-3.98729
 30
0.0
 10
0.28503
 20
-3.98729
 30
0.0
 10
0.27511
 20
-4.08631
 30
0.0
 10
0.1352
 20
-4.17195
 30
0.0
 10
0.07877
 20
-4.25212
 30
0.0
 10
0.07877
 20
-4.25212
 30
0.0
 10
0.0223
 20
-4.33242
 30
0.0
 10
-0.00153
 20
-4.32602
 30
0.0
 10
-0.05156
 20
-4.33839
 30
0.0
 10
-0.05156
 20
-4.33839
 30
0.0
 10
-0.03829
 20
-4.2217
 30
0.0
 10
-0.17779
 20
-4.15211
 30
0.0
 10
-0.17779
 20
-4.15211
 30
0.0
  0
SPLINE
  5
75
330
1F
100
AcDbEntity
  8
Layer 1
100
AcDbSpline
210
0.0
220
0.0
230
1.0
 70
    11
 71
     3
 72
    28
 73
    24
 74
     0
 42
0.0000000001
 43
0.0000000001
 40
0.0
 40
0.0
 40
0.0
 40
0.0
 40
0.1666666666666667
 40
0.1666666666666667
 40
0.1666666666666667
 40
0.1666666666666667
 40
0.3333333333333333
 40
0.3333333333333333
 40
0.3333333333333333
 40
0.3333333333333333
 40
0.5
 40
0.5
 40
0.5
 40
0.5
 40
0.6666666666666666
 40
0.6666666666666666
 40
0.6666666666666666
 40
0.6666666666666666
 40
0.8333333333333333
 40
0.8333333333333333
 40
0.8333333333333333
 40
0.8333333333333333
 40
1.0
 40
1.0
 40
1.0
 40
1.0
 10
-0.07681
 20
-3.55445
 30
0.0
 10
0.14267
 20
-3.51966
 30
0.0
 10
0.12948
 20
-3.39119
 30
0.0
 10
0.19704
 20
-3.35157
 30
0.0
 10
0.19704
 20
-3.35157
 30
0.0
 10
0.2646
 20
-3.31195
 30
0.0
 10
0.31118
 20
-3.37472
 30
0.0
 10
0.35631
 20
-3.35343
 30
0.0
 10
0.35631
 20
-3.35343
 30
0.0
 10
0.31814
 20
-3.4121
 30
0.0
 10
0.43268
 20
-3.52534
 30
0.0
 10
0.14981
 20
-3.5589
 30
0.0
 10
0.14981
 20
-3.5589
 30
0.0
 10
0.07636
 20
-3.56868
 30
0.0
 10
0.0581
 20
-3.48872
 30
0.0
 10
0.04046
 20
-3.58684
 30
0.0
 10
0.04046
 20
-3.58684
 30
0.0
 10
0.02386
 20
-3.66373
 30
0.0
 10
-0.01525
 20
-3.57116
 30
0.0
 10
-0.02903
 20
-3.58257
 30
0.0
 10
-0.02903
 20
-3.58257
 30
0.0
 10
-0.08225
 20
-3.6145
 30
0.0
 10
-0.07681
 20
-3.55445
 30
0.0
 10
-0.07681
 20
-3.55445
 30
0.0
  0
SPLINE
  5
76
330
1F
100
AcDbEntity
  8
Layer 1
100
AcDbSpline
210
0.0
220
0.0
230
1.0
 70
    11
 71
     3
 72
    48
 73
    44
 74
     0
 42
0.0000000001
 43
0.0000000001
 40
0.0
 40
0.0
 40
0.0
 40
0.0
 40
0.0909090909090909
 40
0.0909090909090909
 40
0.0909090909090909
 40
0.0909090909090909
 40
0.1818181818181818
 40
0.1818181818181818
 40
0.1818181818181818
 40
0.1818181818181818
 40
0.2727272727272727
 40
0.2727272727272727
 40
0.2727272727272727
 40
0.2727272727272727
 40
0.3636363636363636
 40
0.3636363636363636
 40
0.3636363636363636
 40
0.3636363636363636
 40
0.4545454545454546
 40
0.4545454545454546
 40
0.4545454545454546
 40
0.4545454545454546
 40
0.5454545454545455
 40
0.5454545454545455
 40
0.5454545454545455
 40
0.5454545454545455
 40
0.6363636363636365
 40
0.6363636363636365
 40
0.6363636363636365
 40
0.6363636363636365
 40
0.7272727272727274
 40
0.7272727272727274
 40
0.7272727272727274
 40
0.7272727272727274
 40
0.8181818181818183
 40
0.8181818181818183
 40
0.8181818181818183
 40
0.8181818181818183
 40
0.9090909090909093
 40
0.9090909090909093
 40
0.9090909090909093
 40
0.9090909090909093
 40
1.0
 40
1.0
 40
1.0
 40
1.0
 10
0.06258
 20
-3.68154
 30
0.0
 10
0.11649
 20
-3.57822
 30
0.0
 10
0.73337
 20
-3.38013
 30
0.0
 10
0.75332
 20
-3.92153
 30
0.0
 10
0.75332
 20
-3.92153
 30
0.0
 10
0.78233
 20
-3.83723
 30
0.0
 10
0.75473
 20
-3.70104
 30
0.0
 10
0.70843
 20
-3.65539
 30
0.0
 10
0.70843
 20
-3.65539
 30
0.0
 10
0.66223
 20
-3.60982
 30
0.0
 10
0.95909
 20
-3.65288
 30
0.0
 10
0.97939
 20
-3.82069
 30
0.0
 10
0.97939
 20
-3.82069
 30
0.0
 10
0.99971
 20
-3.98847
 30
0.0
 10
0.94762
 20
-3.98578
 30
0.0
 10
0.99506
 20
-4.12699
 30
0.0
 10
0.99506
 20
-4.12699
 30
0.0
 10
0.88444
 20
-4.04393
 30
0.0
 10
0.89736
 20
-3.86599
 30
0.0
 10
0.80179
 20
-3.8538
 30
0.0
 10
0.80179
 20
-3.8538
 30
0.0
 10
0.83225
 20
-3.96852
 30
0.0
 10
0.89922
 20
-4.28533
 30
0.0
 10
0.54296
 20
-4.24244
 30
0.0
 10
0.54296
 20
-4.24244
 30
0.0
 10
0.62244
 20
-4.16296
 30
0.0
 10
0.53986
 20
-3.98802
 30
0.0
 10
0.62805
 20
-3.90169
 30
0.0
 10
0.62805
 20
-3.90169
 30
0.0
 10
0.66233
 20
-3.8569
 30
0.0
 10
0.61872
 20
-3.74397
 30
0.0
 10
0.56611
 20
-3.76622
 30
0.0
 10
0.56611
 20
-3.76622
 30
0.0
 10
0.51351
 20
-3.78844
 30
0.0
 10
0.54858
 20
-3.85094
 30
0.0
 10
0.54038
 20
-3.89028
 30
0.0
 10
0.54038
 20
-3.89028
 30
0.0
 10
0.51654
 20
-3.98544
 30
0.0
 10
0.40723
 20
-4.0133
 30
0.0
 10
0.41525
 20
-3.91457
 30
0.0
 10
0.41525
 20
-3.91457
 30
0.0
 10
0.41542
 20
-3.81487
 30
0.0
 10
0.42404
 20
-3.63369
 30
0.0
 10
0.06258
 20
-3.68154
 30
0.0
  0
SPLINE
  5
77
330
1F
100
AcDbEntity
  8
Layer 1
100
AcDbSpline
210
0.0
220
0.0
230
1.0
 70
    11
 71
     3
 72
    20
 73
    16
 74
     0
 42
0.0000000001
 43
0.0000000001
 40
0.0
 40
0.0
 40
0.0
 40
0.0
 40
0.25
 40
0.25
 40
0.25
 40
0.25
 40
0.5
 40
0.5
 40
0.5
 40
0.5
 40
0.75
 40
0.75
 40
0.75
 40
0.75
 40
1.0
 40
1.0
 40
1.0
 40
1.0
 10
0.35817
 20
-3.87419
 30
0.0
 10
0.36085
 20
-3.9145
 30
0.0
 10
0.30129
 20
-3.86448
 30
0.0
 10
0.28138
 20
-3.93035
 30
0.0
 10
0.28138
 20
-3.93035
 30
0.0
 10
0.28606
 20
-3.83582
 30
0.0
 10
0.24306
 20
-3.68451
 30
0.0
 10
0.02561
 20
-3.93738
 30
0.0
 10
0.02561
 20
-3.93738
 30
0.0
 10
-0.01576
 20
-3.91412
 30
0.0
 10
-0.03409
 20
-3.89162
 30
0.0
 10
-0.03409
 20
-3.89162
 30
0.0
 10
-0.03409
 20
-3.89162
 30
0.0
 10
-0.00784
 20
-3.84415
 30
0.0
 10
0.33653
 20
-3.55142
 30
0.0
 10
0.35817
 20
-3.87419
 30
0.0
  0
SPLINE
  5
78
330
1F
100
AcDbEntity
  8
Layer 1
100
AcDbSpline
210
0.0
220
0.0
230
1.0
 70
    11
 71
     3
 72
    12
 73
     8
 74
     0
 42
0.0000000001
 43
0.0000000001
 40
0.0
 40
0.0
 40
0.0
 40
0.0
 40
0.5
 40
0.5
 40
0.5
 40
0.5
 40
1.0
 40
1.0
 40
1.0
 40
1.0
 10
-0.30543
 20
-3.14414
 30
0.0
 10
-0.15546
 20
-2.97489
 30
0.0
 10
-0.01408
 20
-3.1171
 30
0.0
 10
0.08394
 20
-2.98918
 30
0.0
 10
0.08394
 20
-2.98918
 30
0.0
 10
-0.03571
 20
-3.18504
 30
0.0
 10
-0.18926
 20
-3.12495
 30
0.0
 10
-0.30543
 20
-3.14414
 30
0.0
  0
SPLINE
  5
79
330
1F
100
AcDbEntity
  8
Layer 1
100
AcDbSpline
210
0.0
220
0.0
230
1.0
 70
    11
 71
     3
 72
    28
 73
    24
 74
     0
 42
0.0000000001
 43
0.0000000001
 40
0.0
 40
0.0
 40
0.0
 40
0.0
 40
0.1666666666666667
 40
0.1666666666666667
 40
0.1666666666666667
 40
0.1666666666666667
 40
0.3333333333333333
 40
0.3333333333333333
 40
0.3333333333333333
 40
0.3333333333333333
 40
0.5
 40
0.5
 40
0.5
 40
0.5
 40
0.6666666666666666
 40
0.6666666666666666
 40
0.6666666666666666
 40
0.6666666666666666
 40
0.8333333333333333
 40
0.8333333333333333
 40
0.8333333333333333
 40
0.8333333333333333
 40
1.0
 40
1.0
 40
1.0
 40
1.0
 10
-0.71247
 20
-5.48133
 30
0.0
 10
-0.60839
 20
-5.5442
 30
0.0
 10
-0.70203
 20
-5.61786
 30
0.0
 10
-0.58669
 20
-5.67922
 30
0.0
 10
-0.58669
 20
-5.67922
 30
0.0
 10
-0.47124
 20
-5.74054
 30
0.0
 10
-0.3797
 20
-5.82422
 30
0.0
 10
-0.37633
 20
-5.90807
 30
0.0
 10
-0.37633
 20
-5.90807
 30
0.0
 10
-0.26374
 20
-5.83187
 30
0.0
 10
-0.23387
 20
-5.59684
 30
0.0
 10
-0.50734
 20
-5.49897
 30
0.0
 10
-0.50734
 20
-5.49897
 30
0.0
 10
-0.4226
 20
-5.57373
 30
0.0
 10
-0.43152
 20
-5.63571
 30
0.0
 10
-0.43152
 20
-5.63571
 30
0.0
 10
-0.43152
 20
-5.63571
 30
0.0
 10
-0.50087
 20
-5.48781
 30
0.0
 10
-0.59568
 20
-5.48898
 30
0.0
 10
-0.59568
 20
-5.48898
 30
0.0
 10
-0.59568
 20
-5.48898
 30
0.0
 10
-0.59568
 20
-5.48898
 30
0.0
 10
-0.71247
 20
-5.48133
 30
0.0
 10
-0.71247
 20
-5.48133
 30
0.0
  0
SPLINE
  5
7A
330
1F
100
AcDbEntity
  8
Layer 1
100
AcDbSpline
210
0.0
220
0.0
230
1.0
 70
    11
 71
     3
 72
    20
 73
    16
 74
     0
 42
0.0000000001
 43
0.0000000001
 40
0.0
 40
0.0
 40
0.0
 40
0.0
 40
0.25
 40
0.25
 40
0.25
 40
0.25
 40
0.5
 40
0.5
 40
0.5
 40
0.5
 40
0.75
 40
0.75
 40
0.75
 40
0.75
 40
1.0
 40
1.0
 40
1.0
 40
1.0
 10
-0.39466
 20
-5.45081
 30
0.0
 10
-0.29302
 20
-5.43727
 30
0.0
 10
-0.13924
 20
-5.52794
 30
0.0
 10
-0.11395
 20
-5.57455
 30
0.0
 10
-0.11395
 20
-5.57455
 30
0.0
 10
-0.13924
 20
-5.52794
 30
0.0
 10
-0.28459
 20
-5.46121
 30
0.0
 10
-0.38632
 20
-5.47475
 30
0.0
 10
-0.38632
 20
-5.47475
 30
0.0
 10
-0.29244
 20
-5.62751
 30
0.0
 10
-0.1135
 20
-5.59667
 30
0.0
 10
-0.05611
 20
-5.69327
 30
0.0
 10
-0.05611
 20
-5.69327
 30
0.0
 10
-0.01335
 20
-5.61093
 30
0.0
 10
-0.14361
 20
-5.32172
 30
0.0
 10
-0.39466
 20
-5.45081
 30
0.0
  0
SPLINE
  5
7B
330
1F
100
AcDbEntity
  8
Layer 1
100
AcDbSpline
210
0.0
220
0.0
230
1.0
 70
    11
 71
     3
 72
    20
 73
    16
 74
     0
 42
0.0000000001
 43
0.0000000001
 40
0.0
 40
0.0
 40
0.0
 40
0.0
 40
0.25
 40
0.25
 40
0.25
 40
0.25
 40
0.5
 40
0.5
 40
0.5
 40
0.5
 40
0.75
 40
0.75
 40
0.75
 40
0.75
 40
1.0
 40
1.0
 40
1.0
 40
1.0
 10
-0.27373
 20
-5.32592
 30
0.0
 10
-0.14013
 20
-5.43844
 30
0.0
 10
-0.01959
 20
-5.27462
 30
0.0
 10
0.11945
 20
-5.34049
 30
0.0
 10
0.11945
 20
-5.34049
 30
0.0
 10
0.05073
 20
-5.22711
 30
0.0
 10
-0.11074
 20
-5.10668
 30
0.0
 10
-0.2902
 20
-5.31431
 30
0.0
 10
-0.2902
 20
-5.31431
 30
0.0
 10
-0.2902
 20
-5.31431
 30
0.0
 10
-0.17475
 20
-5.22691
 30
0.0
 10
-0.03874
 20
-5.26753
 30
0.0
 10
-0.03874
 20
-5.26753
 30
0.0
 10
-0.17407
 20
-5.24686
 30
0.0
 10
-0.27373
 20
-5.32592
 30
0.0
 10
-0.27373
 20
-5.32592
 30
0.0
  0
SPLINE
  5
7C
330
1F
100
AcDbEntity
  8
Layer 1
100
AcDbSpline
210
0.0
220
0.0
230
1.0
 70
    11
 71
     3
 72
    28
 73
    24
 74
     0
 42
0.0000000001
 43
0.0000000001
 40
0.0
 40
0.0
 40
0.0
 40
0.0
 40
0.1666666666666667
 40
0.1666666666666667
 40
0.1666666666666667
 40
0.1666666666666667
 40
0.3333333333333333
 40
0.3333333333333333
 40
0.3333333333333333
 40
0.3333333333333333
 40
0.5
 40
0.5
 40
0.5
 40
0.5
 40
0.6666666666666666
 40
0.6666666666666666
 40
0.6666666666666666
 40
0.6666666666666666
 40
0.8333333333333333
 40
0.8333333333333333
 40
0.8333333333333333
 40
0.8333333333333333
 40
1.0
 40
1.0
 40
1.0
 40
1.0
 10
-1.13918
 20
-5.48133
 30
0.0
 10
-1.24332
 20
-5.5442
 30
0.0
 10
-1.14961
 20
-5.61786
 30
0.0
 10
-1.26499
 20
-5.67922
 30
0.0
 10
-1.26499
 20
-5.67922
 30
0.0
 10
-1.38037
 20
-5.74054
 30
0.0
 10
-1.47197
 20
-5.82422
 30
0.0
 10
-1.47535
 20
-5.90807
 30
0.0
 10
-1.47535
 20
-5.90807
 30
0.0
 10
-1.58786
 20
-5.83187
 30
0.0
 10
-1.61777
 20
-5.59684
 30
0.0
 10
-1.34429
 20
-5.49897
 30
0.0
 10
-1.34429
 20
-5.49897
 30
0.0
 10
-1.42905
 20
-5.57373
 30
0.0
 10
-1.42016
 20
-5.63571
 30
0.0
 10
-1.42016
 20
-5.63571
 30
0.0
 10
-1.42016
 20
-5.63571
 30
0.0
 10
-1.3507
 20
-5.48781
 30
0.0
 10
-1.25607
 20
-5.48898
 30
0.0
 10
-1.25607
 20
-5.48898
 30
0.0
 10
-1.25607
 20
-5.48898
 30
0.0
 10
-1.25607
 20
-5.48898
 30
0.0
 10
-1.13918
 20
-5.48133
 30
0.0
 10
-1.13918
 20
-5.48133
 30
0.0
  0
SPLINE
  5
7D
330
1F
100
AcDbEntity
  8
Layer 1
100
AcDbSpline
210
0.0
220
0.0
230
1.0
 70
    11
 71
     3
 72
    20
 73
    16
 74
     0
 42
0.0000000001
 43
0.0000000001
 40
0.0
 40
0.0
 40
0.0
 40
0.0
 40
0.25
 40
0.25
 40
0.25
 40
0.25
 40
0.5
 40
0.5
 40
0.5
 40
0.5
 40
0.75
 40
0.75
 40
0.75
 40
0.75
 40
1.0
 40
1.0
 40
1.0
 40
1.0
 10
-1.45692
 20
-5.45081
 30
0.0
 10
-1.55858
 20
-5.43727
 30
0.0
 10
-1.71237
 20
-5.52794
 30
0.0
 10
-1.73766
 20
-5.57455
 30
0.0
 10
-1.73766
 20
-5.57455
 30
0.0
 10
-1.71237
 20
-5.52794
 30
0.0
 10
-1.56702
 20
-5.46121
 30
0.0
 10
-1.46539
 20
-5.47475
 30
0.0
 10
-1.46539
 20
-5.47475
 30
0.0
 10
-1.5592
 20
-5.62751
 30
0.0
 10
-1.73814
 20
-5.59667
 30
0.0
 10
-1.79554
 20
-5.69327
 30
0.0
 10
-1.79554
 20
-5.69327
 30
0.0
 10
-1.83825
 20
-5.61093
 30
0.0
 10
-1.70803
 20
-5.32172
 30
0.0
 10
-1.45692
 20
-5.45081
 30
0.0
  0
SPLINE
  5
7E
330
1F
100
AcDbEntity
  8
Layer 1
100
AcDbSpline
210
0.0
220
0.0
230
1.0
 70
    11
 71
     3
 72
    20
 73
    16
 74
     0
 42
0.0000000001
 43
0.0000000001
 40
0.0
 40
0.0
 40
0.0
 40
0.0
 40
0.25
 40
0.25
 40
0.25
 40
0.25
 40
0.5
 40
0.5
 40
0.5
 40
0.5
 40
0.75
 40
0.75
 40
0.75
 40
0.75
 40
1.0
 40
1.0
 40
1.0
 40
1.0
 10
-1.57791
 20
-5.32592
 30
0.0
 10
-1.71161
 20
-5.43844
 30
0.0
 10
-1.83202
 20
-5.27462
 30
0.0
 10
-1.97106
 20
-5.34049
 30
0.0
 10
-1.97106
 20
-5.34049
 30
0.0
 10
-1.90243
 20
-5.22711
 30
0.0
 10
-1.74089
 20
-5.10668
 30
0.0
 10
-1.56151
 20
-5.31431
 30
0.0
 10
-1.56151
 20
-5.31431
 30
0.0
 10
-1.56151
 20
-5.31431
 30
0.0
 10
-1.67685
 20
-5.22691
 30
0.0
 10
-1.8129
 20
-5.26753
 30
0.0
 10
-1.8129
 20
-5.26753
 30
0.0
 10
-1.67757
 20
-5.24686
 30
0.0
 10
-1.57791
 20
-5.32592
 30
0.0
 10
-1.57791
 20
-5.32592
 30
0.0
  0
SPLINE
  5
7F
330
1F
100
AcDbEntity
  8
Layer 1
100
AcDbSpline
210
0.0
220
0.0
230
1.0
 70
    11
 71
     3
 72
    56
 73
    52
 74
     0
 42
0.0000000001
 43
0.0000000001
 40
0.0
 40
0.0
 40
0.0
 40
0.0
 40
0.0769230769230769
 40
0.0769230769230769
 40
0.0769230769230769
 40
0.0769230769230769
 40
0.1538461538461539
 40
0.1538461538461539
 40
0.1538461538461539
 40
0.1538461538461539
 40
0.2307692307692308
 40
0.2307692307692308
 40
0.2307692307692308
 40
0.2307692307692308
 40
0.3076923076923077
 40
0.3076923076923077
 40
0.3076923076923077
 40
0.3076923076923077
 40
0.3846153846153846
 40
0.3846153846153846
 40
0.3846153846153846
 40
0.3846153846153846
 40
0.4615384615384616
 40
0.4615384615384616
 40
0.4615384615384616
 40
0.4615384615384616
 40
0.5384615384615385
 40
0.5384615384615385
 40
0.5384615384615385
 40
0.5384615384615385
 40
0.6153846153846154
 40
0.6153846153846154
 40
0.6153846153846154
 40
0.6153846153846154
 40
0.6923076923076923
 40
0.6923076923076923
 40
0.6923076923076923
 40
0.6923076923076923
 40
0.7692307692307692
 40
0.7692307692307692
 40
0.7692307692307692
 40
0.7692307692307692
 40
0.846153846153846
 40
0.846153846153846
 40
0.846153846153846
 40
0.846153846153846
 40
0.9230769230769229
 40
0.9230769230769229
 40
0.9230769230769229
 40
0.9230769230769229
 40
1.0
 40
1.0
 40
1.0
 40
1.0
 10
-0.03943
 20
-4.48811
 30
0.0
 10
0.04397
 20
-4.48091
 30
0.0
 10
0.24493
 20
-4.46575
 30
0.0
 10
0.25475
 20
-4.71349
 30
0.0
 10
0.25475
 20
-4.71349
 30
0.0
 10
0.3716
 20
-4.78614
 30
0.0
 10
0.43999
 20
-4.66594
 30
0.0
 10
0.31972
 20
-4.50947
 30
0.0
 10
0.31972
 20
-4.50947
 30
0.0
 10
0.2688
 20
-4.44343
 30
0.0
 10
0.32382
 20
-4.42465
 30
0.0
 10
0.41088
 20
-4.4744
 30
0.0
 10
0.41088
 20
-4.4744
 30
0.0
 10
0.49794
 20
-4.52425
 30
0.0
 10
0.36278
 20
-4.86393
 30
0.0
 10
0.43609
 20
-4.89632
 30
0.0
 10
0.43609
 20
-4.89632
 30
0.0
 10
0.63271
 20
-4.99292
 30
0.0
 10
0.5144
 20
-4.59101
 30
0.0
 10
0.5493
 20
-4.59404
 30
0.0
 10
0.5493
 20
-4.59404
 30
0.0
 10
0.58417
 20
-4.59704
 30
0.0
 10
0.67308
 20
-4.77688
 30
0.0
 10
0.61045
 20
-4.91165
 30
0.0
 10
0.61045
 20
-4.91165
 30
0.0
 10
0.54785
 20
-5.04632
 30
0.0
 10
0.49142
 20
-4.93886
 30
0.0
 10
0.38204
 20
-4.98017
 30
0.0
 10
0.38204
 20
-4.98017
 30
0.0
 10
0.27252
 20
-5.02148
 30
0.0
 10
0.28303
 20
-5.04305
 30
0.0
 10
0.20703
 20
-5.01862
 30
0.0
 10
0.20703
 20
-5.01862
 30
0.0
 10
0.131
 20
-4.99426
 30
0.0
 10
0.12228
 20
-4.89962
 30
0.0
 10
0.15549
 20
-4.86073
 30
0.0
 10
0.15549
 20
-4.86073
 30
0.0
 10
0.06258
 20
-4.91127
 30
0.0
 10
0.06764
 20
-5.09458
 30
0.0
 10
0.19235
 20
-5.13934
 30
0.0
 10
0.19235
 20
-5.13934
 30
0.0
 10
0.31707
 20
-5.18412
 30
0.0
 10
0.41735
 20
-5.24748
 30
0.0
 10
0.50382
 20
-5.14788
 30
0.0
 10
0.50382
 20
-5.14788
 30
0.0
 10
0.79487
 20
-4.94465
 30
0.0
 10
0.76827
 20
-4.3965
 30
0.0
 10
0.27486
 20
-4.37373
 30
0.0
 10
0.27486
 20
-4.37373
 30
0.0
 10
0.13689
 20
-4.37283
 30
0.0
 10
0.03691
 20
-4.4282
 30
0.0
 10
-0.03943
 20
-4.48811
 30
0.0
  0
SPLINE
  5
80
330
1F
100
AcDbEntity
  8
Layer 1
100
AcDbSpline
210
0.0
220
0.0
230
1.0
 70
    11
 71
     3
 72
    44
 73
    40
 74
     0
 42
0.0000000001
 43
0.0000000001
 40
0.0
 40
0.0
 40
0.0
 40
0.0
 40
0.1
 40
0.1
 40
0.1
 40
0.1
 40
0.2
 40
0.2
 40
0.2
 40
0.2
 40
0.3
 40
0.3
 40
0.3
 40
0.3
 40
0.4
 40
0.4
 40
0.4
 40
0.4
 40
0.5
 40
0.5
 40
0.5
 40
0.5
 40
0.6
 40
0.6
 40
0.6
 40
0.6
 40
0.7
 40
0.7
 40
0.7
 40
0.7
 40
0.7999999999999999
 40
0.7999999999999999
 40
0.7999999999999999
 40
0.7999999999999999
 40
0.8999999999999999
 40
0.8999999999999999
 40
0.8999999999999999
 40
0.8999999999999999
 40
1.0
 40
1.0
 40
1.0
 40
1.0
 10
2.89889
 20
-0.94229
 30
0.0
 10
2.81931
 20
-1.07923
 30
0.0
 10
2.91608
 20
-1.46295
 30
0.0
 10
2.76291
 20
-1.47748
 30
0.0
 10
2.76291
 20
-1.47748
 30
0.0
 10
2.60961
 20
-1.49206
 30
0.0
 10
2.71103
 20
-1.34643
 30
0.0
 10
2.70176
 20
-1.23274
 30
0.0
 10
2.70176
 20
-1.23274
 30
0.0
 10
2.60892
 20
-1.00943
 30
0.0
 10
2.44145
 20
-0.91669
 30
0.0
 10
2.23791
 20
-0.89764
 30
0.0
 10
2.23791
 20
-0.89764
 30
0.0
 10
2.36669
 20
-0.82884
 30
0.0
 10
2.50467
 20
-0.96003
 30
0.0
 10
2.55186
 20
-0.92503
 30
0.0
 10
2.55186
 20
-0.92503
 30
0.0
 10
2.59893
 20
-0.89006
 30
0.0
 10
2.42261
 20
-0.64332
 30
0.0
 10
1.80814
 20
-0.69014
 30
0.0
 10
1.80814
 20
-0.69014
 30
0.0
 10
2.04089
 20
-0.5387
 30
0.0
 10
2.2335
 20
-0.69128
 30
0.0
 10
2.26262
 20
-0.60698
 30
0.0
 10
2.26262
 20
-0.60698
 30
0.0
 10
2.29166
 20
-0.52274
 30
0.0
 10
1.73069
 20
-0.53958
 30
0.0
 10
1.78437
 20
-0.33707
 30
0.0
 10
1.78437
 20
-0.33707
 30
0.0
 10
1.85878
 20
-0.46516
 30
0.0
 10
2.26158
 20
-0.46926
 30
0.0
 10
2.45347
 20
-0.61624
 30
0.0
 10
2.45347
 20
-0.61624
 30
0.0
 10
2.6453
 20
-0.76321
 30
0.0
 10
2.67282
 20
-1.14465
 30
0.0
 10
2.74431
 20
-1.16384
 30
0.0
 10
2.74431
 20
-1.16384
 30
0.0
 10
2.81586
 20
-1.1832
 30
0.0
 10
2.73139
 20
-0.93571
 30
0.0
 10
2.89889
 20
-0.94229
 30
0.0
  0
SPLINE
  5
81
330
1F
100
AcDbEntity
  8
Layer 1
100
AcDbSpline
210
0.0
220
0.0
230
1.0
 70
    11
 71
     3
 72
    28
 73
    24
 74
     0
 42
0.0000000001
 43
0.0000000001
 40
0.0
 40
0.0
 40
0.0
 40
0.0
 40
0.1666666666666667
 40
0.1666666666666667
 40
0.1666666666666667
 40
0.1666666666666667
 40
0.3333333333333333
 40
0.3333333333333333
 40
0.3333333333333333
 40
0.3333333333333333
 40
0.5
 40
0.5
 40
0.5
 40
0.5
 40
0.6666666666666666
 40
0.6666666666666666
 40
0.6666666666666666
 40
0.6666666666666666
 40
0.8333333333333333
 40
0.8333333333333333
 40
0.8333333333333333
 40
0.8333333333333333
 40
1.0
 40
1.0
 40
1.0
 40
1.0
 10
1.41326
 20
-1.48379
 30
0.0
 10
1.36448
 20
-1.66323
 30
0.0
 10
1.51723
 20
-2.18255
 30
0.0
 10
1.85806
 20
-2.02249
 30
0.0
 10
1.85806
 20
-2.02249
 30
0.0
 10
2.19888
 20
-1.86243
 30
0.0
 10
2.10328
 20
-1.4441
 30
0.0
 10
1.89544
 20
-1.52341
 30
0.0
 10
1.89544
 20
-1.52341
 30
0.0
 10
1.68763
 20
-1.60261
 30
0.0
 10
1.99755
 20
-1.8604
 30
0.0
 10
1.7648
 20
-1.92565
 30
0.0
 10
1.7648
 20
-1.92565
 30
0.0
 10
1.53208
 20
-1.99096
 30
0.0
 10
1.65452
 20
-1.91728
 30
0.0
 10
1.65452
 20
-1.91728
 30
0.0
 10
1.65452
 20
-1.91728
 30
0.0
 10
1.72418
 20
-1.87934
 30
0.0
 10
1.81768
 20
-1.80379
 30
0.0
 10
1.75677
 20
-1.6911
 30
0.0
 10
1.75677
 20
-1.6911
 30
0.0
 10
1.73524
 20
-1.74564
 30
0.0
 10
1.51179
 20
-1.92465
 30
0.0
 10
1.41326
 20
-1.48379
 30
0.0
  0
SPLINE
  5
82
330
1F
100
AcDbEntity
  8
Layer 1
100
AcDbSpline
210
0.0
220
0.0
230
1.0
 70
    11
 71
     3
 72
   124
 73
   120
 74
     0
 42
0.0000000001
 43
0.0000000001
 40
0.0
 40
0.0
 40
0.0
 40
0.0
 40
0.0333333333333333
 40
0.0333333333333333
 40
0.0333333333333333
 40
0.0333333333333333
 40
0.0666666666666667
 40
0.0666666666666667
 40
0.0666666666666667
 40
0.0666666666666667
 40
0.1
 40
0.1
 40
0.1
 40
0.1
 40
0.1333333333333333
 40
0.1333333333333333
 40
0.1333333333333333
 40
0.1333333333333333
 40
0.1666666666666667
 40
0.1666666666666667
 40
0.1666666666666667
 40
0.1666666666666667
 40
0.2
 40
0.2
 40
0.2
 40
0.2
 40
0.2333333333333333
 40
0.2333333333333333
 40
0.2333333333333333
 40
0.2333333333333333
 40
0.2666666666666667
 40
0.2666666666666667
 40
0.2666666666666667
 40
0.2666666666666667
 40
0.3
 40
0.3
 40
0.3
 40
0.3
 40
0.3333333333333333
 40
0.3333333333333333
 40
0.3333333333333333
 40
0.3333333333333333
 40
0.3666666666666666
 40
0.3666666666666666
 40
0.3666666666666666
 40
0.3666666666666666
 40
0.4
 40
0.4
 40
0.4
 40
0.4
 40
0.4333333333333333
 40
0.4333333333333333
 40
0.4333333333333333
 40
0.4333333333333333
 40
0.4666666666666666
 40
0.4666666666666666
 40
0.4666666666666666
 40
0.4666666666666666
 40
0.4999999999999999
 40
0.4999999999999999
 40
0.4999999999999999
 40
0.4999999999999999
 40
0.5333333333333333
 40
0.5333333333333333
 40
0.5333333333333333
 40
0.5333333333333333
 40
0.5666666666666667
 40
0.5666666666666667
 40
0.5666666666666667
 40
0.5666666666666667
 40
0.6
 40
0.6
 40
0.6
 40
0.6
 40
0.6333333333333333
 40
0.6333333333333333
 40
0.6333333333333333
 40
0.6333333333333333
 40
0.6666666666666666
 40
0.6666666666666666
 40
0.6666666666666666
 40
0.6666666666666666
 40
0.7
 40
0.7
 40
0.7
 40
0.7
 40
0.7333333333333333
 40
0.7333333333333333
 40
0.7333333333333333
 40
0.7333333333333333
 40
0.7666666666666666
 40
0.7666666666666666
 40
0.7666666666666666
 40
0.7666666666666666
 40
0.7999999999999999
 40
0.7999999999999999
 40
0.7999999999999999
 40
0.7999999999999999
 40
0.8333333333333333
 40
0.8333333333333333
 40
0.8333333333333333
 40
0.8333333333333333
 40
0.8666666666666666
 40
0.8666666666666666
 40
0.8666666666666666
 40
0.8666666666666666
 40
0.8999999999999999
 40
0.8999999999999999
 40
0.8999999999999999
 40
0.8999999999999999
 40
0.9333333333333332
 40
0.9333333333333332
 40
0.9333333333333332
 40
0.9333333333333332
 40
0.9666666666666666
 40
0.9666666666666666
 40
0.9666666666666666
 40
0.9666666666666666
 40
1.0
 40
1.0
 40
1.0
 40
1.0
 10
1.0928
 20
-0.75618
 30
0.0
 10
0.81364
 20
-0.82536
 30
0.0
 10
0.55357
 20
-1.32748
 30
0.0
 10
0.55357
 20
-1.32748
 30
0.0
 10
0.55357
 20
-1.32748
 30
0.0
 10
0.69093
 20
-1.36676
 30
0.0
 10
0.68083
 20
-1.24749
 30
0.0
 10
0.75018
 20
-1.1635
 30
0.0
 10
0.75018
 20
-1.1635
 30
0.0
 10
0.78002
 20
-1.08492
 30
0.0
 10
1.0158
 20
-0.95603
 30
0.0
 10
1.06279
 20
-1.00719
 30
0.0
 10
1.06279
 20
-1.00719
 30
0.0
 10
1.16535
 20
-1.21772
 30
0.0
 10
0.83173
 20
-1.3022
 30
0.0
 10
0.80713
 20
-1.42033
 30
0.0
 10
0.80713
 20
-1.42033
 30
0.0
 10
0.7826
 20
-1.53853
 30
0.0
 10
0.86976
 20
-1.76255
 30
0.0
 10
1.05587
 20
-1.60585
 30
0.0
 10
1.05587
 20
-1.60585
 30
0.0
 10
0.97646
 20
-1.57029
 30
0.0
 10
0.95427
 20
-1.53302
 30
0.0
 10
0.95427
 20
-1.53302
 30
0.0
 10
0.95427
 20
-1.53302
 30
0.0
 10
1.03602
 20
-1.49929
 30
0.0
 10
1.02817
 20
-1.3968
 30
0.0
 10
1.13101
 20
-1.34874
 30
0.0
 10
1.13101
 20
-1.34874
 30
0.0
 10
1.23381
 20
-1.30068
 30
0.0
 10
1.23329
 20
-1.24594
 30
0.0
 10
1.23329
 20
-1.24594
 30
0.0
 10
1.23329
 20
-1.24594
 30
0.0
 10
1.19508
 20
-1.21138
 30
0.0
 10
1.22847
 20
-1.1215
 30
0.0
 10
1.38904
 20
-1.01619
 30
0.0
 10
1.38904
 20
-1.01619
 30
0.0
 10
1.46852
 20
-0.96537
 30
0.0
 10
1.43979
 20
-0.8596
 30
0.0
 10
1.52908
 20
-0.79608
 30
0.0
 10
1.52908
 20
-0.79608
 30
0.0
 10
1.61835
 20
-0.73252
 30
0.0
 10
1.74068
 20
-0.74509
 30
0.0
 10
1.77073
 20
-0.79856
 30
0.0
 10
1.77073
 20
-0.79856
 30
0.0
 10
1.80084
 20
-0.85206
 30
0.0
 10
1.73586
 20
-1.06883
 30
0.0
 10
1.43838
 20
-1.02377
 30
0.0
 10
1.43838
 20
-1.02377
 30
0.0
 10
1.35104
 20
-1.06865
 30
0.0
 10
1.1935
 20
-1.17569
 30
0.0
 10
1.25138
 20
-1.24594
 30
0.0
 10
1.25138
 20
-1.24594
 30
0.0
 10
1.28859
 20
-1.25982
 30
0.0
 10
1.35273
 20
-1.25538
 30
0.0
 10
1.43114
 20
-1.22858
 30
0.0
 10
1.43114
 20
-1.22858
 30
0.0
 10
1.43114
 20
-1.22858
 30
0.0
 10
1.27367
 20
-1.34137
 30
0.0
 10
1.24211
 20
-1.36276
 30
0.0
 10
1.24211
 20
-1.36276
 30
0.0
 10
1.12835
 20
-1.3721
 30
0.0
 10
1.19608
 20
-1.44934
 30
0.0
 10
1.06238
 20
-1.52447
 30
0.0
 10
1.06238
 20
-1.52447
 30
0.0
 10
1.4218
 20
-1.59183
 30
0.0
 10
1.41147
 20
-1.3403
 30
0.0
 10
1.57501
 20
-1.18651
 30
0.0
 10
1.57501
 20
-1.18651
 30
0.0
 10
1.61222
 20
-1.25059
 30
0.0
 10
1.56326
 20
-1.3145
 30
0.0
 10
1.51231
 20
-1.40741
 30
0.0
 10
1.51231
 20
-1.40741
 30
0.0
 10
1.46142
 20
-1.50032
 30
0.0
 10
1.553
 20
-1.75832
 30
0.0
 10
1.6642
 20
-1.68621
 30
0.0
 10
1.6642
 20
-1.68621
 30
0.0
 10
1.77531
 20
-1.61401
 30
0.0
 10
1.63127
 20
-1.43769
 30
0.0
 10
1.79815
 20
-1.26616
 30
0.0
 10
1.79815
 20
-1.26616
 30
0.0
 10
1.96517
 20
-1.0946
 30
0.0
 10
2.00813
 20
-0.90794
 30
0.0
 10
1.90746
 20
-0.83008
 30
0.0
 10
1.90746
 20
-0.83008
 30
0.0
 10
1.90746
 20
-0.83008
 30
0.0
 10
1.92837
 20
-1.07503
 30
0.0
 10
1.72108
 20
-1.16147
 30
0.0
 10
1.72108
 20
-1.16147
 30
0.0
 10
1.82568
 20
-1.09284
 30
0.0
 10
1.91301
 20
-0.8315
 30
0.0
 10
1.83405
 20
-0.75577
 30
0.0
 10
1.83405
 20
-0.75577
 30
0.0
 10
1.75505
 20
-0.68001
 30
0.0
 10
1.55365
 20
-0.67784
 30
0.0
 10
1.47262
 20
-0.71739
 30
0.0
 10
1.47262
 20
-0.71739
 30
0.0
 10
1.39169
 20
-0.75681
 30
0.0
 10
1.31212
 20
-0.77978
 30
0.0
 10
1.19498
 20
-0.92076
 30
0.0
 10
1.19498
 20
-0.92076
 30
0.0
 10
1.19474
 20
-0.79115
 30
0.0
 10
1.48929
 20
-0.62438
 30
0.0
 10
1.61976
 20
-0.65728
 30
0.0
 10
1.61976
 20
-0.65728
 30
0.0
 10
1.57838
 20
-0.57728
 30
0.0
 10
1.45391
 20
-0.57618
 30
0.0
 10
1.27777
 20
-0.63399
 30
0.0
 10
1.27777
 20
-0.63399
 30
0.0
 10
0.91576
 20
-0.41762
 30
0.0
 10
0.87989
 20
-0.92799
 30
0.0
 10
0.5533
 20
-0.80459
 30
0.0
 10
0.5533
 20
-0.80459
 30
0.0
 10
0.57759
 20
-0.94504
 30
0.0
 10
0.78136
 20
-0.87786
 30
0.0
 10
0.86866
 20
-0.84324
 30
0.0
 10
0.86866
 20
-0.84324
 30
0.0
 10
0.9561
 20
-0.80872
 30
0.0
 10
0.98473
 20
-0.76473
 30
0.0
 10
1.0928
 20
-0.75618
 30
0.0
  0
SPLINE
  5
83
330
1F
100
AcDbEntity
  8
Layer 1
100
AcDbSpline
210
0.0
220
0.0
230
1.0
 70
    11
 71
     3
 72
   124
 73
   120
 74
     0
 42
0.0000000001
 43
0.0000000001
 40
0.0
 40
0.0
 40
0.0
 40
0.0
 40
0.0333333333333333
 40
0.0333333333333333
 40
0.0333333333333333
 40
0.0333333333333333
 40
0.0666666666666667
 40
0.0666666666666667
 40
0.0666666666666667
 40
0.0666666666666667
 40
0.1
 40
0.1
 40
0.1
 40
0.1
 40
0.1333333333333333
 40
0.1333333333333333
 40
0.1333333333333333
 40
0.1333333333333333
 40
0.1666666666666667
 40
0.1666666666666667
 40
0.1666666666666667
 40
0.1666666666666667
 40
0.2
 40
0.2
 40
0.2
 40
0.2
 40
0.2333333333333333
 40
0.2333333333333333
 40
0.2333333333333333
 40
0.2333333333333333
 40
0.2666666666666667
 40
0.2666666666666667
 40
0.2666666666666667
 40
0.2666666666666667
 40
0.3
 40
0.3
 40
0.3
 40
0.3
 40
0.3333333333333333
 40
0.3333333333333333
 40
0.3333333333333333
 40
0.3333333333333333
 40
0.3666666666666666
 40
0.3666666666666666
 40
0.3666666666666666
 40
0.3666666666666666
 40
0.4
 40
0.4
 40
0.4
 40
0.4
 40
0.4333333333333333
 40
0.4333333333333333
 40
0.4333333333333333
 40
0.4333333333333333
 40
0.4666666666666666
 40
0.4666666666666666
 40
0.4666666666666666
 40
0.4666666666666666
 40
0.4999999999999999
 40
0.4999999999999999
 40
0.4999999999999999
 40
0.4999999999999999
 40
0.5333333333333333
 40
0.5333333333333333
 40
0.5333333333333333
 40
0.5333333333333333
 40
0.5666666666666667
 40
0.5666666666666667
 40
0.5666666666666667
 40
0.5666666666666667
 40
0.6
 40
0.6
 40
0.6
 40
0.6
 40
0.6333333333333333
 40
0.6333333333333333
 40
0.6333333333333333
 40
0.6333333333333333
 40
0.6666666666666666
 40
0.6666666666666666
 40
0.6666666666666666
 40
0.6666666666666666
 40
0.7
 40
0.7
 40
0.7
 40
0.7
 40
0.7333333333333333
 40
0.7333333333333333
 40
0.7333333333333333
 40
0.7333333333333333
 40
0.7666666666666666
 40
0.7666666666666666
 40
0.7666666666666666
 40
0.7666666666666666
 40
0.7999999999999999
 40
0.7999999999999999
 40
0.7999999999999999
 40
0.7999999999999999
 40
0.8333333333333333
 40
0.8333333333333333
 40
0.8333333333333333
 40
0.8333333333333333
 40
0.8666666666666666
 40
0.8666666666666666
 40
0.8666666666666666
 40
0.8666666666666666
 40
0.8999999999999999
 40
0.8999999999999999
 40
0.8999999999999999
 40
0.8999999999999999
 40
0.9333333333333332
 40
0.9333333333333332
 40
0.9333333333333332
 40
0.9333333333333332
 40
0.9666666666666666
 40
0.9666666666666666
 40
0.9666666666666666
 40
0.9666666666666666
 40
1.0
 40
1.0
 40
1.0
 40
1.0
 10
-2.94447
 20
-0.75618
 30
0.0
 10
-2.66528
 20
-0.82536
 30
0.0
 10
-2.40521
 20
-1.32748
 30
0.0
 10
-2.40521
 20
-1.32748
 30
0.0
 10
-2.40521
 20
-1.32748
 30
0.0
 10
-2.54254
 20
-1.36676
 30
0.0
 10
-2.53247
 20
-1.24749
 30
0.0
 10
-2.60182
 20
-1.1635
 30
0.0
 10
-2.60182
 20
-1.1635
 30
0.0
 10
-2.63166
 20
-1.08492
 30
0.0
 10
-2.86744
 20
-0.95603
 30
0.0
 10
-2.91443
 20
-1.00719
 30
0.0
 10
-2.91443
 20
-1.00719
 30
0.0
 10
-3.01706
 20
-1.21772
 30
0.0
 10
-2.68347
 20
-1.3022
 30
0.0
 10
-2.65887
 20
-1.42033
 30
0.0
 10
-2.65887
 20
-1.42033
 30
0.0
 10
-2.63421
 20
-1.53853
 30
0.0
 10
-2.72137
 20
-1.76255
 30
0.0
 10
-2.90751
 20
-1.60585
 30
0.0
 10
-2.90751
 20
-1.60585
 30
0.0
 10
-2.8281
 20
-1.57029
 30
0.0
 10
-2.80595
 20
-1.53302
 30
0.0
 10
-2.80595
 20
-1.53302
 30
0.0
 10
-2.80595
 20
-1.53302
 30
0.0
 10
-2.88767
 20
-1.49929
 30
0.0
 10
-2.87981
 20
-1.3968
 30
0.0
 10
-2.98261
 20
-1.34874
 30
0.0
 10
-2.98261
 20
-1.34874
 30
0.0
 10
-3.08552
 20
-1.30068
 30
0.0
 10
-3.08496
 20
-1.24594
 30
0.0
 10
-3.08496
 20
-1.24594
 30
0.0
 10
-3.08496
 20
-1.24594
 30
0.0
 10
-3.04673
 20
-1.21138
 30
0.0
 10
-3.08011
 20
-1.1215
 30
0.0
 10
-3.24068
 20
-1.01619
 30
0.0
 10
-3.24068
 20
-1.01619
 30
0.0
 10
-3.32016
 20
-0.96537
 30
0.0
 10
-3.29139
 20
-0.8596
 30
0.0
 10
-3.38073
 20
-0.79608
 30
0.0
 10
-3.38073
 20
-0.79608
 30
0.0
 10
-3.46999
 20
-0.73252
 30
0.0
 10
-3.59236
 20
-0.74509
 30
0.0
 10
-3.62236
 20
-0.79856
 30
0.0
 10
-3.62236
 20
-0.79856
 30
0.0
 10
-3.65248
 20
-0.85206
 30
0.0
 10
-3.58757
 20
-1.06883
 30
0.0
 10
-3.29009
 20
-1.02377
 30
0.0
 10
-3.29009
 20
-1.02377
 30
0.0
 10
-3.20275
 20
-1.06865
 30
0.0
 10
-3.04511
 20
-1.17569
 30
0.0
 10
-3.10305
 20
-1.24594
 30
0.0
 10
-3.10305
 20
-1.24594
 30
0.0
 10
-3.14019
 20
-1.25982
 30
0.0
 10
-3.20437
 20
-1.25538
 30
0.0
 10
-3.28278
 20
-1.22858
 30
0.0
 10
-3.28278
 20
-1.22858
 30
0.0
 10
-3.28278
 20
-1.22858
 30
0.0
 10
-3.12531
 20
-1.34137
 30
0.0
 10
-3.09372
 20
-1.36276
 30
0.0
 10
-3.09372
 20
-1.36276
 30
0.0
 10
-2.98003
 20
-1.3721
 30
0.0
 10
-3.04769
 20
-1.44934
 30
0.0
 10
-2.91402
 20
-1.52447
 30
0.0
 10
-2.91402
 20
-1.52447
 30
0.0
 10
-3.27345
 20
-1.59183
 30
0.0
 10
-3.26311
 20
-1.3403
 30
0.0
 10
-3.42661
 20
-1.18651
 30
0.0
 10
-3.42661
 20
-1.18651
 30
0.0
 10
-3.46382
 20
-1.25059
 30
0.0
 10
-3.41487
 20
-1.3145
 30
0.0
 10
-3.36398
 20
-1.40741
 30
0.0
 10
-3.36398
 20
-1.40741
 30
0.0
 10
-3.31307
 20
-1.50032
 30
0.0
 10
-3.40467
 20
-1.75832
 30
0.0
 10
-3.51581
 20
-1.68621
 30
0.0
 10
-3.51581
 20
-1.68621
 30
0.0
 10
-3.62691
 20
-1.61401
 30
0.0
 10
-3.48291
 20
-1.43769
 30
0.0
 10
-3.64989
 20
-1.26616
 30
0.0
 10
-3.64989
 20
-1.26616
 30
0.0
 10
-3.81681
 20
-1.0946
 30
0.0
 10
-3.85977
 20
-0.90794
 30
0.0
 10
-3.7591
 20
-0.83008
 30
0.0
 10
-3.7591
 20
-0.83008
 30
0.0
 10
-3.7591
 20
-0.83008
 30
0.0
 10
-3.78001
 20
-1.07503
 30
0.0
 10
-3.57279
 20
-1.16147
 30
0.0
 10
-3.57279
 20
-1.16147
 30
0.0
 10
-3.67728
 20
-1.09284
 30
0.0
 10
-3.76472
 20
-0.8315
 30
0.0
 10
-3.68569
 20
-0.75577
 30
0.0
 10
-3.68569
 20
-0.75577
 30
0.0
 10
-3.60669
 20
-0.68001
 30
0.0
 10
-3.40525
 20
-0.67784
 30
0.0
 10
-3.32437
 20
-0.71739
 30
0.0
 10
-3.32437
 20
-0.71739
 30
0.0
 10
-3.24334
 20
-0.75681
 30
0.0
 10
-3.16379
 20
-0.77978
 30
0.0
 10
-3.04673
 20
-0.92076
 30
0.0
 10
-3.04673
 20
-0.92076
 30
0.0
 10
-3.04634
 20
-0.79115
 30
0.0
 10
-3.34094
 20
-0.62438
 30
0.0
 10
-3.4714
 20
-0.65728
 30
0.0
 10
-3.4714
 20
-0.65728
 30
0.0
 10
-3.43009
 20
-0.57728
 30
0.0
 10
-3.30566
 20
-0.57618
 30
0.0
 10
-3.12941
 20
-0.63399
 30
0.0
 10
-3.12941
 20
-0.63399
 30
0.0
 10
-2.76746
 20
-0.41762
 30
0.0
 10
-2.7316
 20
-0.92799
 30
0.0
 10
-2.4049
 20
-0.80459
 30
0.0
 10
-2.4049
 20
-0.80459
 30
0.0
 10
-2.42923
 20
-0.94504
 30
0.0
 10
-2.633
 20
-0.87786
 30
0.0
 10
-2.72037
 20
-0.84324
 30
0.0
 10
-2.72037
 20
-0.84324
 30
0.0
 10
-2.8077
 20
-0.80872
 30
0.0
 10
-2.83637
 20
-0.76473
 30
0.0
 10
-2.94447
 20
-0.75618
 30
0.0
  0
SPLINE
  5
84
330
1F
100
AcDbEntity
  8
Layer 1
100
AcDbSpline
210
0.0
220
0.0
230
1.0
 70
    11
 71
     3
 72
    48
 73
    44
 74
     0
 42
0.0000000001
 43
0.0000000001
 40
0.0
 40
0.0
 40
0.0
 40
0.0
 40
0.0909090909090909
 40
0.0909090909090909
 40
0.0909090909090909
 40
0.0909090909090909
 40
0.1818181818181818
 40
0.1818181818181818
 40
0.1818181818181818
 40
0.1818181818181818
 40
0.2727272727272727
 40
0.2727272727272727
 40
0.2727272727272727
 40
0.2727272727272727
 40
0.3636363636363636
 40
0.3636363636363636
 40
0.3636363636363636
 40
0.3636363636363636
 40
0.4545454545454546
 40
0.4545454545454546
 40
0.4545454545454546
 40
0.4545454545454546
 40
0.5454545454545455
 40
0.5454545454545455
 40
0.5454545454545455
 40
0.5454545454545455
 40
0.6363636363636365
 40
0.6363636363636365
 40
0.6363636363636365
 40
0.6363636363636365
 40
0.7272727272727274
 40
0.7272727272727274
 40
0.7272727272727274
 40
0.7272727272727274
 40
0.8181818181818183
 40
0.8181818181818183
 40
0.8181818181818183
 40
0.8181818181818183
 40
0.9090909090909093
 40
0.9090909090909093
 40
0.9090909090909093
 40
0.9090909090909093
 40
1.0
 40
1.0
 40
1.0
 40
1.0
 10
1.05356
 20
-1.67508
 30
0.0
 10
0.97336
 20
-1.82594
 30
0.0
 10
0.66333
 20
-1.93932
 30
0.0
 10
0.50658
 20
-1.66706
 30
0.0
 10
0.50658
 20
-1.66706
 30
0.0
 10
0.43703
 20
-1.53257
 30
0.0
 10
0.41859
 20
-1.52351
 30
0.0
 10
0.35834
 20
-1.50274
 30
0.0
 10
0.35834
 20
-1.50274
 30
0.0
 10
0.36995
 20
-1.63344
 30
0.0
 10
0.49924
 20
-1.82887
 30
0.0
 10
0.6705
 20
-1.86367
 30
0.0
 10
0.6705
 20
-1.86367
 30
0.0
 10
0.27397
 20
-2.03682
 30
0.0
 10
0.36682
 20
-1.78323
 30
0.0
 10
0.07136
 20
-1.67863
 30
0.0
 10
0.07136
 20
-1.67863
 30
0.0
 10
0.2728
 20
-1.59452
 30
0.0
 10
0.36902
 20
-1.80011
 30
0.0
 10
0.45029
 20
-1.80662
 30
0.0
 10
0.45029
 20
-1.80662
 30
0.0
 10
0.4331
 20
-1.67674
 30
0.0
 10
0.0314
 20
-1.33345
 30
0.0
 10
0.41026
 20
-1.15685
 30
0.0
 10
0.41026
 20
-1.15685
 30
0.0
 10
0.3683
 20
-1.31749
 30
0.0
 10
0.46403
 20
-1.25893
 30
0.0
 10
0.49625
 20
-1.41551
 30
0.0
 10
0.49625
 20
-1.41551
 30
0.0
 10
0.52846
 20
-1.57216
 30
0.0
 10
0.54262
 20
-1.76566
 30
0.0
 10
0.73389
 20
-1.73461
 30
0.0
 10
0.73389
 20
-1.73461
 30
0.0
 10
0.58224
 20
-1.67429
 30
0.0
 10
0.49849
 20
-1.43253
 30
0.0
 10
0.61782
 20
-1.42247
 30
0.0
 10
0.61782
 20
-1.42247
 30
0.0
 10
0.7372
 20
-1.41241
 30
0.0
 10
0.75225
 20
-1.43911
 30
0.0
 10
0.75501
 20
-1.63413
 30
0.0
 10
0.75501
 20
-1.63413
 30
0.0
 10
0.77527
 20
-1.70034
 30
0.0
 10
0.85281
 20
-1.76479
 30
0.0
 10
1.05356
 20
-1.67508
 30
0.0
  0
SPLINE
  5
85
330
1F
100
AcDbEntity
  8
Layer 1
100
AcDbSpline
210
0.0
220
0.0
230
1.0
 70
    11
 71
     3
 72
    16
 73
    12
 74
     0
 42
0.0000000001
 43
0.0000000001
 40
0.0
 40
0.0
 40
0.0
 40
0.0
 40
0.3333333333333333
 40
0.3333333333333333
 40
0.3333333333333333
 40
0.3333333333333333
 40
0.6666666666666666
 40
0.6666666666666666
 40
0.6666666666666666
 40
0.6666666666666666
 40
1.0
 40
1.0
 40
1.0
 40
1.0
 10
1.86929
 20
-0.54421
 30
0.0
 10
1.90712
 20
-0.59278
 30
0.0
 10
1.54393
 20
-0.60453
 30
0.0
 10
1.39466
 20
-0.3887
 30
0.0
 10
1.39466
 20
-0.3887
 30
0.0
 10
1.37251
 20
-0.35139
 30
0.0
 10
1.38801
 20
-0.33786
 30
0.0
 10
1.42856
 20
-0.38415
 30
0.0
 10
1.42856
 20
-0.38415
 30
0.0
 10
1.46918
 20
-0.43054
 30
0.0
 10
1.66445
 20
-0.55988
 30
0.0
 10
1.86929
 20
-0.54421
 30
0.0
  0
SPLINE
  5
86
330
1F
100
AcDbEntity
  8
Layer 1
100
AcDbSpline
210
0.0
220
0.0
230
1.0
 70
    11
 71
     3
 72
    16
 73
    12
 74
     0
 42
0.0000000001
 43
0.0000000001
 40
0.0
 40
0.0
 40
0.0
 40
0.0
 40
0.3333333333333333
 40
0.3333333333333333
 40
0.3333333333333333
 40
0.3333333333333333
 40
0.6666666666666666
 40
0.6666666666666666
 40
0.6666666666666666
 40
0.6666666666666666
 40
1.0
 40
1.0
 40
1.0
 40
1.0
 10
1.30626
 20
-0.28544
 30
0.0
 10
1.33148
 20
-0.34534
 30
0.0
 10
1.5224
 20
-0.26834
 30
0.0
 10
1.51121
 20
-0.18359
 30
0.0
 10
1.51121
 20
-0.18359
 30
0.0
 10
1.49998
 20
-0.09886
 30
0.0
 10
1.36414
 20
-0.0709
 30
0.0
 10
1.34498
 20
0.03004
 30
0.0
 10
1.34498
 20
0.03004
 30
0.0
 10
1.34105
 20
-0.11416
 30
0.0
 10
1.21396
 20
-0.02186
 30
0.0
 10
1.30626
 20
-0.28544
 30
0.0
  0
SPLINE
  5
87
330
1F
100
AcDbEntity
  8
Layer 1
100
AcDbSpline
210
0.0
220
0.0
230
1.0
 70
    11
 71
     3
 72
    20
 73
    16
 74
     0
 42
0.0000000001
 43
0.0000000001
 40
0.0
 40
0.0
 40
0.0
 40
0.0
 40
0.25
 40
0.25
 40
0.25
 40
0.25
 40
0.5
 40
0.5
 40
0.5
 40
0.5
 40
0.75
 40
0.75
 40
0.75
 40
0.75
 40
1.0
 40
1.0
 40
1.0
 40
1.0
 10
1.19284
 20
-0.03611
 30
0.0
 10
1.19322
 20
0.00413
 30
0.0
 10
1.15192
 20
0.0561
 30
0.0
 10
1.1236
 20
0.05238
 30
0.0
 10
1.1236
 20
0.05238
 30
0.0
 10
1.09538
 20
0.04863
 30
0.0
 10
1.03361
 20
-0.00548
 30
0.0
 10
1.09762
 20
-0.05444
 30
0.0
 10
1.09762
 20
-0.05444
 30
0.0
 10
0.9963
 20
-0.02765
 30
0.0
 10
0.96368
 20
0.08871
 30
0.0
 10
1.08987
 20
0.13408
 30
0.0
 10
1.08987
 20
0.13408
 30
0.0
 10
1.21599
 20
0.17957
 30
0.0
 10
1.25803
 20
0.03574
 30
0.0
 10
1.19284
 20
-0.03611
 30
0.0
  0
SPLINE
  5
88
330
1F
100
AcDbEntity
  8
Layer 1
100
AcDbSpline
210
0.0
220
0.0
230
1.0
 70
    11
 71
     3
 72
    16
 73
    12
 74
     0
 42
0.0000000001
 43
0.0000000001
 40
0.0
 40
0.0
 40
0.0
 40
0.0
 40
0.3333333333333333
 40
0.3333333333333333
 40
0.3333333333333333
 40
0.3333333333333333
 40
0.6666666666666666
 40
0.6666666666666666
 40
0.6666666666666666
 40
0.6666666666666666
 40
1.0
 40
1.0
 40
1.0
 40
1.0
 10
1.27759
 20
-0.32949
 30
0.0
 10
1.27308
 20
-0.18673
 30
0.0
 10
0.95751
 20
-0.0385
 30
0.0
 10
0.82157
 20
-0.09681
 30
0.0
 10
0.82157
 20
-0.09681
 30
0.0
 10
0.96495
 20
-0.1812
 30
0.0
 10
0.96633
 20
-0.36493
 30
0.0
 10
1.07616
 20
-0.41362
 30
0.0
 10
1.07616
 20
-0.41362
 30
0.0
 10
1.18833
 20
-0.46328
 30
0.0
 10
1.28135
 20
-0.44387
 30
0.0
 10
1.27759
 20
-0.32949
 30
0.0
  0
SPLINE
  5
89
330
1F
100
AcDbEntity
  8
Layer 1
100
AcDbSpline
210
0.0
220
0.0
230
1.0
 70
    11
 71
     3
 72
    72
 73
    68
 74
     0
 42
0.0000000001
 43
0.0000000001
 40
0.0
 40
0.0
 40
0.0
 40
0.0
 40
0.0588235294117647
 40
0.0588235294117647
 40
0.0588235294117647
 40
0.0588235294117647
 40
0.1176470588235294
 40
0.1176470588235294
 40
0.1176470588235294
 40
0.1176470588235294
 40
0.1764705882352941
 40
0.1764705882352941
 40
0.1764705882352941
 40
0.1764705882352941
 40
0.2352941176470588
 40
0.2352941176470588
 40
0.2352941176470588
 40
0.2352941176470588
 40
0.2941176470588235
 40
0.2941176470588235
 40
0.2941176470588235
 40
0.2941176470588235
 40
0.3529411764705883
 40
0.3529411764705883
 40
0.3529411764705883
 40
0.3529411764705883
 40
0.411764705882353
 40
0.411764705882353
 40
0.411764705882353
 40
0.411764705882353
 40
0.4705882352941177
 40
0.4705882352941177
 40
0.4705882352941177
 40
0.4705882352941177
 40
0.5294117647058824
 40
0.5294117647058824
 40
0.5294117647058824
 40
0.5294117647058824
 40
0.5882352941176471
 40
0.5882352941176471
 40
0.5882352941176471
 40
0.5882352941176471
 40
0.6470588235294118
 40
0.6470588235294118
 40
0.6470588235294118
 40
0.6470588235294118
 40
0.7058823529411765
 40
0.7058823529411765
 40
0.7058823529411765
 40
0.7058823529411765
 40
0.7647058823529412
 40
0.7647058823529412
 40
0.7647058823529412
 40
0.7647058823529412
 40
0.823529411764706
 40
0.823529411764706
 40
0.823529411764706
 40
0.823529411764706
 40
0.8823529411764707
 40
0.8823529411764707
 40
0.8823529411764707
 40
0.8823529411764707
 40
0.9411764705882354
 40
0.9411764705882354
 40
0.9411764705882354
 40
0.9411764705882354
 40
1.0
 40
1.0
 40
1.0
 40
1.0
 10
-0.2091
 20
0.52167
 30
0.0
 10
-0.20662
 20
0.53447
 30
0.0
 10
-0.206
 20
0.54756
 30
0.0
 10
-0.20611
 20
0.56091
 30
0.0
 10
-0.20611
 20
0.56091
 30
0.0
 10
-0.19284
 20
0.59376
 30
0.0
 10
-0.15639
 20
0.62092
 30
0.0
 10
-0.12118
 20
0.64716
 30
0.0
 10
-0.12118
 20
0.64716
 30
0.0
 10
-0.08325
 20
0.6753
 30
0.0
 10
-0.04577
 20
0.70484
 30
0.0
 10
-0.03261
 20
0.74286
 30
0.0
 10
-0.03261
 20
0.74286
 30
0.0
 10
-0.00384
 20
0.69248
 30
0.0
 10
0.02937
 20
0.61637
 30
0.0
 10
0.02937
 20
0.52789
 30
0.0
 10
0.02937
 20
0.52789
 30
0.0
 10
0.02937
 20
0.49239
 30
0.0
 10
0.02355
 20
0.45518
 30
0.0
 10
0.01021
 20
0.41732
 30
0.0
 10
0.01021
 20
0.41732
 30
0.0
 10
0.0097
 20
0.41591
 30
0.0
 10
0.00887
 20
0.41439
 30
0.0
 10
0.00835
 20
0.41298
 30
0.0
 10
0.00835
 20
0.41298
 30
0.0
 10
0.00835
 20
0.41298
 30
0.0
 10
0.0087
 20
0.4128
 30
0.0
 10
0.0087
 20
0.4128
 30
0.0
 10
0.0087
 20
0.4128
 30
0.0
 10
-0.00767
 20
0.36838
 30
0.0
 10
-0.03475
 20
0.32306
 30
0.0
 10
-0.07723
 20
0.27884
 30
0.0
 10
-0.07723
 20
0.27884
 30
0.0
 10
-0.1761
 20
0.17566
 30
0.0
 10
-0.30553
 20
0.13756
 30
0.0
 10
-0.37712
 20
0.15411
 30
0.0
 10
-0.37712
 20
0.15411
 30
0.0
 10
-0.39138
 20
0.1574
 30
0.0
 10
-0.40775
 20
0.16471
 30
0.0
 10
-0.42101
 20
0.17745
 30
0.0
 10
-0.42101
 20
0.17745
 30
0.0
 10
-0.35018
 20
0.16996
 30
0.0
 10
-0.20042
 20
0.24277
 30
0.0
 10
-0.1195
 20
0.41582
 30
0.0
 10
-0.1195
 20
0.41582
 30
0.0
 10
-0.27783
 20
0.19924
 30
0.0
 10
-0.38708
 20
0.1898
 30
0.0
 10
-0.43838
 20
0.20362
 30
0.0
 10
-0.43838
 20
0.20362
 30
0.0
 10
-0.43879
 20
0.20478
 30
0.0
 10
-0.43955
 20
0.20548
 30
0.0
 10
-0.43989
 20
0.20665
 30
0.0
 10
-0.43989
 20
0.20665
 30
0.0
 10
-0.43989
 20
0.20665
 30
0.0
 10
-0.44354
 20
0.20548
 30
0.0
 10
-0.44354
 20
0.20548
 30
0.0
 10
-0.44354
 20
0.20548
 30
0.0
 10
-0.48299
 20
0.21812
 30
0.0
 10
-0.50879
 20
0.24873
 30
0.0
 10
-0.52009
 20
0.27543
 30
0.0
 10
-0.52009
 20
0.27543
 30
0.0
 10
-0.50559
 20
0.26966
 30
0.0
 10
-0.48939
 20
0.26566
 30
0.0
 10
-0.47148
 20
0.26441
 30
0.0
 10
-0.47148
 20
0.26441
 30
0.0
 10
-0.37746
 20
0.258
 30
0.0
 10
-0.2523
 20
0.32148
 30
0.0
 10
-0.2091
 20
0.52167
 30
0.0
  0
SPLINE
  5
8A
330
1F
100
AcDbEntity
  8
Layer 1
100
AcDbSpline
210
0.0
220
0.0
230
1.0
 70
    11
 71
     3
 72
    84
 73
    80
 74
     0
 42
0.0000000001
 43
0.0000000001
 40
0.0
 40
0.0
 40
0.0
 40
0.0
 40
0.05
 40
0.05
 40
0.05
 40
0.05
 40
0.1
 40
0.1
 40
0.1
 40
0.1
 40
0.15
 40
0.15
 40
0.15
 40
0.15
 40
0.2
 40
0.2
 40
0.2
 40
0.2
 40
0.25
 40
0.25
 40
0.25
 40
0.25
 40
0.3
 40
0.3
 40
0.3
 40
0.3
 40
0.35
 40
0.35
 40
0.35
 40
0.35
 40
0.4
 40
0.4
 40
0.4
 40
0.4
 40
0.45
 40
0.45
 40
0.45
 40
0.45
 40
0.4999999999999999
 40
0.4999999999999999
 40
0.4999999999999999
 40
0.4999999999999999
 40
0.5499999999999999
 40
0.5499999999999999
 40
0.5499999999999999
 40
0.5499999999999999
 40
0.6
 40
0.6
 40
0.6
 40
0.6
 40
0.65
 40
0.65
 40
0.65
 40
0.65
 40
0.7000000000000001
 40
0.7000000000000001
 40
0.7000000000000001
 40
0.7000000000000001
 40
0.7500000000000001
 40
0.7500000000000001
 40
0.7500000000000001
 40
0.7500000000000001
 40
0.8000000000000002
 40
0.8000000000000002
 40
0.8000000000000002
 40
0.8000000000000002
 40
0.8500000000000002
 40
0.8500000000000002
 40
0.8500000000000002
 40
0.8500000000000002
 40
0.9000000000000002
 40
0.9000000000000002
 40
0.9000000000000002
 40
0.9000000000000002
 40
0.9500000000000003
 40
0.9500000000000003
 40
0.9500000000000003
 40
0.9500000000000003
 40
1.0
 40
1.0
 40
1.0
 40
1.0
 10
0.02926
 20
0.40523
 30
0.0
 10
0.02926
 20
0.40523
 30
0.0
 10
0.02971
 20
0.40505
 30
0.0
 10
0.02971
 20
0.40505
 30
0.0
 10
0.02971
 20
0.40505
 30
0.0
 10
0.06916
 20
0.51153
 30
0.0
 10
0.16424
 20
0.64886
 30
0.0
 10
0.27986
 20
0.69871
 30
0.0
 10
0.27986
 20
0.69871
 30
0.0
 10
0.33495
 20
0.72257
 30
0.0
 10
0.38879
 20
0.72364
 30
0.0
 10
0.43944
 20
0.70209
 30
0.0
 10
0.43944
 20
0.70209
 30
0.0
 10
0.58837
 20
0.62999
 30
0.0
 10
0.58158
 20
0.51695
 30
0.0
 10
0.57197
 20
0.47261
 30
0.0
 10
0.57197
 20
0.47261
 30
0.0
 10
0.5543
 20
0.41494
 30
0.0
 10
0.49315
 20
0.38421
 30
0.0
 10
0.44647
 20
0.38876
 30
0.0
 10
0.44647
 20
0.38876
 30
0.0
 10
0.43224
 20
0.39017
 30
0.0
 10
0.39865
 20
0.39758
 30
0.0
 10
0.39482
 20
0.4354
 30
0.0
 10
0.39482
 20
0.4354
 30
0.0
 10
0.392
 20
0.46328
 30
0.0
 10
0.39896
 20
0.484
 30
0.0
 10
0.41432
 20
0.49389
 30
0.0
 10
0.41432
 20
0.49389
 30
0.0
 10
0.42645
 20
0.50172
 30
0.0
 10
0.44247
 20
0.50155
 30
0.0
 10
0.45611
 20
0.49363
 30
0.0
 10
0.45611
 20
0.49363
 30
0.0
 10
0.47299
 20
0.48364
 30
0.0
 10
0.48198
 20
0.46441
 30
0.0
 10
0.48057
 20
0.44066
 30
0.0
 10
0.48057
 20
0.44066
 30
0.0
 10
0.48057
 20
0.44066
 30
0.0
 10
0.47882
 20
0.41093
 30
0.0
 10
0.47882
 20
0.41093
 30
0.0
 10
0.47882
 20
0.41093
 30
0.0
 10
0.47882
 20
0.41093
 30
0.0
 10
0.49997
 20
0.43193
 30
0.0
 10
0.49997
 20
0.43193
 30
0.0
 10
0.49997
 20
0.43193
 30
0.0
 10
0.58072
 20
0.51178
 30
0.0
 10
0.54744
 20
0.56296
 30
0.0
 10
0.52935
 20
0.58131
 30
0.0
 10
0.52935
 20
0.58131
 30
0.0
 10
0.4753
 20
0.63594
 30
0.0
 10
0.3345
 20
0.63639
 30
0.0
 10
0.26043
 20
0.56313
 30
0.0
 10
0.26043
 20
0.56313
 30
0.0
 10
0.21213
 20
0.52825
 30
0.0
 10
0.18061
 20
0.47137
 30
0.0
 10
0.14416
 20
0.40559
 30
0.0
 10
0.14416
 20
0.40559
 30
0.0
 10
0.10209
 20
0.32957
 30
0.0
 10
0.05438
 20
0.24339
 30
0.0
 10
-0.03082
 20
0.17663
 30
0.0
 10
-0.03082
 20
0.17663
 30
0.0
 10
-0.11608
 20
0.10828
 30
0.0
 10
-0.2182
 20
0.10738
 30
0.0
 10
-0.25148
 20
0.12609
 30
0.0
 10
-0.25148
 20
0.12609
 30
0.0
 10
-0.25647
 20
0.12893
 30
0.0
 10
-0.26233
 20
0.13346
 30
0.0
 10
-0.26164
 20
0.13899
 30
0.0
 10
-0.26164
 20
0.13899
 30
0.0
 10
-0.26164
 20
0.13899
 30
0.0
 10
-0.26209
 20
0.13907
 30
0.0
 10
-0.26209
 20
0.13907
 30
0.0
 10
-0.26209
 20
0.13907
 30
0.0
 10
-0.19229
 20
0.15883
 30
0.0
 10
-0.1185
 20
0.20281
 30
0.0
 10
-0.06072
 20
0.26308
 30
0.0
 10
-0.06072
 20
0.26308
 30
0.0
 10
-0.01587
 20
0.3098
 30
0.0
 10
0.01218
 20
0.35787
 30
0.0
 10
0.02926
 20
0.40523
 30
0.0
  0
SPLINE
  5
8B
330
1F
100
AcDbEntity
  8
Layer 1
100
AcDbSpline
210
0.0
220
0.0
230
1.0
 70
    11
 71
     3
 72
    72
 73
    68
 74
     0
 42
0.0000000001
 43
0.0000000001
 40
0.0
 40
0.0
 40
0.0
 40
0.0
 40
0.0588235294117647
 40
0.0588235294117647
 40
0.0588235294117647
 40
0.0588235294117647
 40
0.1176470588235294
 40
0.1176470588235294
 40
0.1176470588235294
 40
0.1176470588235294
 40
0.1764705882352941
 40
0.1764705882352941
 40
0.1764705882352941
 40
0.1764705882352941
 40
0.2352941176470588
 40
0.2352941176470588
 40
0.2352941176470588
 40
0.2352941176470588
 40
0.2941176470588235
 40
0.2941176470588235
 40
0.2941176470588235
 40
0.2941176470588235
 40
0.3529411764705883
 40
0.3529411764705883
 40
0.3529411764705883
 40
0.3529411764705883
 40
0.411764705882353
 40
0.411764705882353
 40
0.411764705882353
 40
0.411764705882353
 40
0.4705882352941177
 40
0.4705882352941177
 40
0.4705882352941177
 40
0.4705882352941177
 40
0.5294117647058824
 40
0.5294117647058824
 40
0.5294117647058824
 40
0.5294117647058824
 40
0.5882352941176471
 40
0.5882352941176471
 40
0.5882352941176471
 40
0.5882352941176471
 40
0.6470588235294118
 40
0.6470588235294118
 40
0.6470588235294118
 40
0.6470588235294118
 40
0.7058823529411765
 40
0.7058823529411765
 40
0.7058823529411765
 40
0.7058823529411765
 40
0.7647058823529412
 40
0.7647058823529412
 40
0.7647058823529412
 40
0.7647058823529412
 40
0.823529411764706
 40
0.823529411764706
 40
0.823529411764706
 40
0.823529411764706
 40
0.8823529411764707
 40
0.8823529411764707
 40
0.8823529411764707
 40
0.8823529411764707
 40
0.9411764705882354
 40
0.9411764705882354
 40
0.9411764705882354
 40
0.9411764705882354
 40
1.0
 40
1.0
 40
1.0
 40
1.0
 10
-1.86034
 20
0.4128
 30
0.0
 10
-1.86034
 20
0.4128
 30
0.0
 10
-1.86009
 20
0.41298
 30
0.0
 10
-1.86009
 20
0.41298
 30
0.0
 10
-1.86009
 20
0.41298
 30
0.0
 10
-1.86061
 20
0.41439
 30
0.0
 10
-1.8613
 20
0.41591
 30
0.0
 10
-1.86192
 20
0.41732
 30
0.0
 10
-1.86192
 20
0.41732
 30
0.0
 10
-1.87519
 20
0.45518
 30
0.0
 10
-1.88097
 20
0.49239
 30
0.0
 10
-1.88097
 20
0.52789
 30
0.0
 10
-1.88097
 20
0.52789
 30
0.0
 10
-1.88097
 20
0.61637
 30
0.0
 10
-1.84776
 20
0.69248
 30
0.0
 10
-1.81903
 20
0.74286
 30
0.0
 10
-1.81903
 20
0.74286
 30
0.0
 10
-1.80597
 20
0.70484
 30
0.0
 10
-1.76846
 20
0.6753
 30
0.0
 10
-1.73056
 20
0.64716
 30
0.0
 10
-1.73056
 20
0.64716
 30
0.0
 10
-1.69521
 20
0.62092
 30
0.0
 10
-1.6588
 20
0.59376
 30
0.0
 10
-1.64553
 20
0.56091
 30
0.0
 10
-1.64553
 20
0.56091
 30
0.0
 10
-1.64564
 20
0.54756
 30
0.0
 10
-1.64498
 20
0.53447
 30
0.0
 10
-1.64257
 20
0.52167
 30
0.0
 10
-1.64257
 20
0.52167
 30
0.0
 10
-1.59934
 20
0.32148
 30
0.0
 10
-1.47418
 20
0.258
 30
0.0
 10
-1.38019
 20
0.26441
 30
0.0
 10
-1.38019
 20
0.26441
 30
0.0
 10
-1.36228
 20
0.26566
 30
0.0
 10
-1.34602
 20
0.26966
 30
0.0
 10
-1.33155
 20
0.27543
 30
0.0
 10
-1.33155
 20
0.27543
 30
0.0
 10
-1.34278
 20
0.24873
 30
0.0
 10
-1.36862
 20
0.21812
 30
0.0
 10
-1.40817
 20
0.20548
 30
0.0
 10
-1.40817
 20
0.20548
 30
0.0
 10
-1.40817
 20
0.20548
 30
0.0
 10
-1.41168
 20
0.20665
 30
0.0
 10
-1.41168
 20
0.20665
 30
0.0
 10
-1.41168
 20
0.20665
 30
0.0
 10
-1.41217
 20
0.20548
 30
0.0
 10
-1.41285
 20
0.20478
 30
0.0
 10
-1.41334
 20
0.20362
 30
0.0
 10
-1.41334
 20
0.20362
 30
0.0
 10
-1.46456
 20
0.1898
 30
0.0
 10
-1.57391
 20
0.19924
 30
0.0
 10
-1.73225
 20
0.41582
 30
0.0
 10
-1.73225
 20
0.41582
 30
0.0
 10
-1.65125
 20
0.24277
 30
0.0
 10
-1.50143
 20
0.16996
 30
0.0
 10
-1.43066
 20
0.17745
 30
0.0
 10
-1.43066
 20
0.17745
 30
0.0
 10
-1.44393
 20
0.16471
 30
0.0
 10
-1.46029
 20
0.1574
 30
0.0
 10
-1.47455
 20
0.15411
 30
0.0
 10
-1.47455
 20
0.15411
 30
0.0
 10
-1.54611
 20
0.13756
 30
0.0
 10
-1.67554
 20
0.17566
 30
0.0
 10
-1.77445
 20
0.27884
 30
0.0
 10
-1.77445
 20
0.27884
 30
0.0
 10
-1.81689
 20
0.32306
 30
0.0
 10
-1.84394
 20
0.36838
 30
0.0
 10
-1.86034
 20
0.4128
 30
0.0
  0
SPLINE
  5
8C
330
1F
100
AcDbEntity
  8
Layer 1
100
AcDbSpline
210
0.0
220
0.0
230
1.0
 70
    11
 71
     3
 72
   332
 73
   328
 74
     0
 42
0.0000000001
 43
0.0000000001
 40
0.0
 40
0.0
 40
0.0
 40
0.0
 40
0.0121951219512195
 40
0.0121951219512195
 40
0.0121951219512195
 40
0.0121951219512195
 40
0.024390243902439
 40
0.024390243902439
 40
0.024390243902439
 40
0.024390243902439
 40
0.0365853658536585
 40
0.0365853658536585
 40
0.0365853658536585
 40
0.0365853658536585
 40
0.0487804878048781
 40
0.0487804878048781
 40
0.0487804878048781
 40
0.0487804878048781
 40
0.0609756097560976
 40
0.0609756097560976
 40
0.0609756097560976
 40
0.0609756097560976
 40
0.0731707317073171
 40
0.0731707317073171
 40
0.0731707317073171
 40
0.0731707317073171
 40
0.0853658536585366
 40
0.0853658536585366
 40
0.0853658536585366
 40
0.0853658536585366
 40
0.0975609756097561
 40
0.0975609756097561
 40
0.0975609756097561
 40
0.0975609756097561
 40
0.1097560975609756
 40
0.1097560975609756
 40
0.1097560975609756
 40
0.1097560975609756
 40
0.1219512195121951
 40
0.1219512195121951
 40
0.1219512195121951
 40
0.1219512195121951
 40
0.1341463414634146
 40
0.1341463414634146
 40
0.1341463414634146
 40
0.1341463414634146
 40
0.1463414634146341
 40
0.1463414634146341
 40
0.1463414634146341
 40
0.1463414634146341
 40
0.1585365853658537
 40
0.1585365853658537
 40
0.1585365853658537
 40
0.1585365853658537
 40
0.1707317073170732
 40
0.1707317073170732
 40
0.1707317073170732
 40
0.1707317073170732
 40
0.1829268292682927
 40
0.1829268292682927
 40
0.1829268292682927
 40
0.1829268292682927
 40
0.1951219512195122
 40
0.1951219512195122
 40
0.1951219512195122
 40
0.1951219512195122
 40
0.2073170731707318
 40
0.2073170731707318
 40
0.2073170731707318
 40
0.2073170731707318
 40
0.2195121951219513
 40
0.2195121951219513
 40
0.2195121951219513
 40
0.2195121951219513
 40
0.2317073170731708
 40
0.2317073170731708
 40
0.2317073170731708
 40
0.2317073170731708
 40
0.2439024390243903
 40
0.2439024390243903
 40
0.2439024390243903
 40
0.2439024390243903
 40
0.2560975609756098
 40
0.2560975609756098
 40
0.2560975609756098
 40
0.2560975609756098
 40
0.2682926829268293
 40
0.2682926829268293
 40
0.2682926829268293
 40
0.2682926829268293
 40
0.2804878048780489
 40
0.2804878048780489
 40
0.2804878048780489
 40
0.2804878048780489
 40
0.2926829268292684
 40
0.2926829268292684
 40
0.2926829268292684
 40
0.2926829268292684
 40
0.3048780487804879
 40
0.3048780487804879
 40
0.3048780487804879
 40
0.3048780487804879
 40
0.3170731707317074
 40
0.3170731707317074
 40
0.3170731707317074
 40
0.3170731707317074
 40
0.329268292682927
 40
0.329268292682927
 40
0.329268292682927
 40
0.329268292682927
 40
0.3414634146341465
 40
0.3414634146341465
 40
0.3414634146341465
 40
0.3414634146341465
 40
0.353658536585366
 40
0.353658536585366
 40
0.353658536585366
 40
0.353658536585366
 40
0.3658536585365855
 40
0.3658536585365855
 40
0.3658536585365855
 40
0.3658536585365855
 40
0.378048780487805
 40
0.378048780487805
 40
0.378048780487805
 40
0.378048780487805
 40
0.3902439024390246
 40
0.3902439024390246
 40
0.3902439024390246
 40
0.3902439024390246
 40
0.4024390243902441
 40
0.4024390243902441
 40
0.4024390243902441
 40
0.4024390243902441
 40
0.4146341463414636
 40
0.4146341463414636
 40
0.4146341463414636
 40
0.4146341463414636
 40
0.4268292682926831
 40
0.4268292682926831
 40
0.4268292682926831
 40
0.4268292682926831
 40
0.4390243902439027
 40
0.4390243902439027
 40
0.4390243902439027
 40
0.4390243902439027
 40
0.4512195121951222
 40
0.4512195121951222
 40
0.4512195121951222
 40
0.4512195121951222
 40
0.4634146341463417
 40
0.4634146341463417
 40
0.4634146341463417
 40
0.4634146341463417
 40
0.4756097560975612
 40
0.4756097560975612
 40
0.4756097560975612
 40
0.4756097560975612
 40
0.4878048780487808
 40
0.4878048780487808
 40
0.4878048780487808
 40
0.4878048780487808
 40
0.5000000000000002
 40
0.5000000000000002
 40
0.5000000000000002
 40
0.5000000000000002
 40
0.5121951219512197
 40
0.5121951219512197
 40
0.5121951219512197
 40
0.5121951219512197
 40
0.5243902439024393
 40
0.5243902439024393
 40
0.5243902439024393
 40
0.5243902439024393
 40
0.5365853658536588
 40
0.5365853658536588
 40
0.5365853658536588
 40
0.5365853658536588
 40
0.5487804878048783
 40
0.5487804878048783
 40
0.5487804878048783
 40
0.5487804878048783
 40
0.5609756097560978
 40
0.5609756097560978
 40
0.5609756097560978
 40
0.5609756097560978
 40
0.5731707317073174
 40
0.5731707317073174
 40
0.5731707317073174
 40
0.5731707317073174
 40
0.5853658536585369
 40
0.5853658536585369
 40
0.5853658536585369
 40
0.5853658536585369
 40
0.5975609756097564
 40
0.5975609756097564
 40
0.5975609756097564
 40
0.5975609756097564
 40
0.6097560975609759
 40
0.6097560975609759
 40
0.6097560975609759
 40
0.6097560975609759
 40
0.6219512195121955
 40
0.6219512195121955
 40
0.6219512195121955
 40
0.6219512195121955
 40
0.634146341463415
 40
0.634146341463415
 40
0.634146341463415
 40
0.634146341463415
 40
0.6463414634146345
 40
0.6463414634146345
 40
0.6463414634146345
 40
0.6463414634146345
 40
0.658536585365854
 40
0.658536585365854
 40
0.658536585365854
 40
0.658536585365854
 40
0.6707317073170735
 40
0.6707317073170735
 40
0.6707317073170735
 40
0.6707317073170735
 40
0.6829268292682931
 40
0.6829268292682931
 40
0.6829268292682931
 40
0.6829268292682931
 40
0.6951219512195126
 40
0.6951219512195126
 40
0.6951219512195126
 40
0.6951219512195126
 40
0.7073170731707321
 40
0.7073170731707321
 40
0.7073170731707321
 40
0.7073170731707321
 40
0.7195121951219516
 40
0.7195121951219516
 40
0.7195121951219516
 40
0.7195121951219516
 40
0.7317073170731712
 40
0.7317073170731712
 40
0.7317073170731712
 40
0.7317073170731712
 40
0.7439024390243907
 40
0.7439024390243907
 40
0.7439024390243907
 40
0.7439024390243907
 40
0.7560975609756102
 40
0.7560975609756102
 40
0.7560975609756102
 40
0.7560975609756102
 40
0.7682926829268297
 40
0.7682926829268297
 40
0.7682926829268297
 40
0.7682926829268297
 40
0.7804878048780493
 40
0.7804878048780493
 40
0.7804878048780493
 40
0.7804878048780493
 40
0.7926829268292688
 40
0.7926829268292688
 40
0.7926829268292688
 40
0.7926829268292688
 40
0.8048780487804883
 40
0.8048780487804883
 40
0.8048780487804883
 40
0.8048780487804883
 40
0.8170731707317078
 40
0.8170731707317078
 40
0.8170731707317078
 40
0.8170731707317078
 40
0.8292682926829273
 40
0.8292682926829273
 40
0.8292682926829273
 40
0.8292682926829273
 40
0.8414634146341469
 40
0.8414634146341469
 40
0.8414634146341469
 40
0.8414634146341469
 40
0.8536585365853664
 40
0.8536585365853664
 40
0.8536585365853664
 40
0.8536585365853664
 40
0.8658536585365859
 40
0.8658536585365859
 40
0.8658536585365859
 40
0.8658536585365859
 40
0.8780487804878054
 40
0.8780487804878054
 40
0.8780487804878054
 40
0.8780487804878054
 40
0.890243902439025
 40
0.890243902439025
 40
0.890243902439025
 40
0.890243902439025
 40
0.9024390243902445
 40
0.9024390243902445
 40
0.9024390243902445
 40
0.9024390243902445
 40
0.914634146341464
 40
0.914634146341464
 40
0.914634146341464
 40
0.914634146341464
 40
0.9268292682926835
 40
0.9268292682926835
 40
0.9268292682926835
 40
0.9268292682926835
 40
0.939024390243903
 40
0.939024390243903
 40
0.939024390243903
 40
0.939024390243903
 40
0.9512195121951226
 40
0.9512195121951226
 40
0.9512195121951226
 40
0.9512195121951226
 40
0.9634146341463421
 40
0.9634146341463421
 40
0.9634146341463421
 40
0.9634146341463421
 40
0.9756097560975616
 40
0.9756097560975616
 40
0.9756097560975616
 40
0.9756097560975616
 40
0.9878048780487811
 40
0.9878048780487811
 40
0.9878048780487811
 40
0.9878048780487811
 40
1.0
 40
1.0
 40
1.0
 40
1.0
 10
-0.92582
 20
0.27696
 30
0.0
 10
-0.92582
 20
0.27696
 30
0.0
 10
-1.04195
 20
0.3503
 30
0.0
 10
-1.04195
 20
0.3503
 30
0.0
 10
-1.04195
 20
0.3503
 30
0.0
 10
-1.04195
 20
0.3503
 30
0.0
 10
-1.04819
 20
0.34559
 30
0.0
 10
-1.04819
 20
0.34559
 30
0.0
 10
-1.04819
 20
0.34559
 30
0.0
 10
-1.0895
 20
0.314
 30
0.0
 10
-1.18341
 20
0.30937
 30
0.0
 10
-1.26916
 20
0.35646
 30
0.0
 10
-1.26916
 20
0.35646
 30
0.0
 10
-1.33492
 20
0.39258
 30
0.0
 10
-1.42905
 20
0.46781
 30
0.0
 10
-1.43763
 20
0.70993
 30
0.0
 10
-1.43763
 20
0.70993
 30
0.0
 10
-1.45692
 20
0.48846
 30
0.0
 10
-1.36435
 20
0.38797
 30
0.0
 10
-1.29352
 20
0.34425
 30
0.0
 10
-1.29352
 20
0.34425
 30
0.0
 10
-1.29913
 20
0.31409
 30
0.0
 10
-1.33492
 20
0.2904
 30
0.0
 10
-1.38171
 20
0.2872
 30
0.0
 10
-1.38171
 20
0.2872
 30
0.0
 10
-1.46673
 20
0.28141
 30
0.0
 10
-1.58011
 20
0.34053
 30
0.0
 10
-1.62028
 20
0.52629
 30
0.0
 10
-1.62028
 20
0.52629
 30
0.0
 10
-1.63413
 20
0.59856
 30
0.0
 10
-1.5971
 20
0.68642
 30
0.0
 10
-1.55796
 20
0.77936
 30
0.0
 10
-1.55796
 20
0.77936
 30
0.0
 10
-1.51469
 20
0.88199
 30
0.0
 10
-1.47001
 20
0.9881
 30
0.0
 10
-1.49557
 20
1.07933
 30
0.0
 10
-1.49557
 20
1.07933
 30
0.0
 10
-1.51094
 20
1.13418
 30
0.0
 10
-1.55014
 20
1.167
 30
0.0
 10
-1.60309
 20
1.16942
 30
0.0
 10
-1.60309
 20
1.16942
 30
0.0
 10
-1.65907
 20
1.17192
 30
0.0
 10
-1.7196
 20
1.13917
 30
0.0
 10
-1.73525
 20
1.09785
 30
0.0
 10
-1.73525
 20
1.09785
 30
0.0
 10
-1.74462
 20
1.0732
 30
0.0
 10
-1.73707
 20
1.04934
 30
0.0
 10
-1.71389
 20
1.03065
 30
0.0
 10
-1.71389
 20
1.03065
 30
0.0
 10
-1.71389
 20
1.03065
 30
0.0
 10
-1.70431
 20
1.02281
 30
0.0
 10
-1.70431
 20
1.02281
 30
0.0
 10
-1.70431
 20
1.02281
 30
0.0
 10
-1.70431
 20
1.02281
 30
0.0
 10
-1.69735
 20
1.03313
 30
0.0
 10
-1.69735
 20
1.03313
 30
0.0
 10
-1.69735
 20
1.03313
 30
0.0
 10
-1.68516
 20
1.05113
 30
0.0
 10
-1.67065
 20
1.05842
 30
0.0
 10
-1.65649
 20
1.05361
 30
0.0
 10
-1.65649
 20
1.05361
 30
0.0
 10
-1.64047
 20
1.04827
 30
0.0
 10
-1.62828
 20
1.0293
 30
0.0
 10
-1.62914
 20
1.01134
 30
0.0
 10
-1.62914
 20
1.01134
 30
0.0
 10
-1.63014
 20
0.99174
 30
0.0
 10
-1.64598
 20
0.97751
 30
0.0
 10
-1.67385
 20
0.97127
 30
0.0
 10
-1.67385
 20
0.97127
 30
0.0
 10
-1.7183
 20
0.96121
 30
0.0
 10
-1.75006
 20
1.00117
 30
0.0
 10
-1.76177
 20
1.04524
 30
0.0
 10
-1.76177
 20
1.04524
 30
0.0
 10
-1.77952
 20
1.11128
 30
0.0
 10
-1.75643
 20
1.19078
 30
0.0
 10
-1.67875
 20
1.215
 30
0.0
 10
-1.67875
 20
1.215
 30
0.0
 10
-1.63131
 20
1.22977
 30
0.0
 10
-1.5634
 20
1.23806
 30
0.0
 10
-1.50883
 20
1.19398
 30
0.0
 10
-1.50883
 20
1.19398
 30
0.0
 10
-1.43487
 20
1.13418
 30
0.0
 10
-1.40548
 20
0.99415
 30
0.0
 10
-1.42388
 20
0.78898
 30
0.0
 10
-1.42388
 20
0.78898
 30
0.0
 10
-1.34068
 20
0.9371
 30
0.0
 10
-1.24539
 20
0.97163
 30
0.0
 10
-1.21059
 20
0.98337
 30
0.0
 10
-1.21059
 20
0.98337
 30
0.0
 10
-1.21986
 20
0.96468
 30
0.0
 10
-1.22489
 20
0.94778
 30
0.0
 10
-1.22489
 20
0.93236
 30
0.0
 10
-1.22489
 20
0.93236
 30
0.0
 10
-1.22489
 20
0.92179
 30
0.0
 10
-1.22365
 20
0.91145
 30
0.0
 10
-1.22224
 20
0.9006
 30
0.0
 10
-1.22224
 20
0.9006
 30
0.0
 10
-1.22072
 20
0.88849
 30
0.0
 10
-1.21903
 20
0.8755
 30
0.0
 10
-1.21903
 20
0.86044
 30
0.0
 10
-1.21903
 20
0.86044
 30
0.0
 10
-1.21903
 20
0.81933
 30
0.0
 10
-1.23123
 20
0.76219
 30
0.0
 10
-1.29041
 20
0.66133
 30
0.0
 10
-1.29041
 20
0.66133
 30
0.0
 10
-1.30344
 20
0.63677
 30
0.0
 10
-1.30912
 20
0.60969
 30
0.0
 10
-1.30912
 20
0.58201
 30
0.0
 10
-1.30912
 20
0.58201
 30
0.0
 10
-1.30912
 20
0.49113
 30
0.0
 10
-1.24814
 20
0.39393
 30
0.0
 10
-1.18617
 20
0.36037
 30
0.0
 10
-1.18617
 20
0.36037
 30
0.0
 10
-1.1368
 20
0.33366
 30
0.0
 10
-1.09057
 20
0.3479
 30
0.0
 10
-1.06263
 20
0.39837
 30
0.0
 10
-1.06263
 20
0.39837
 30
0.0
 10
-1.06263
 20
0.39837
 30
0.0
 10
-1.0607
 20
0.40194
 30
0.0
 10
-1.0607
 20
0.40194
 30
0.0
 10
-1.0607
 20
0.40194
 30
0.0
 10
-1.0607
 20
0.40194
 30
0.0
 10
-1.06138
 20
0.40585
 30
0.0
 10
-1.06138
 20
0.40585
 30
0.0
 10
-1.06138
 20
0.40585
 30
0.0
 10
-1.07206
 20
0.46674
 30
0.0
 10
-1.10252
 20
0.48934
 30
0.0
 10
-1.13187
 20
0.51134
 30
0.0
 10
-1.13187
 20
0.51134
 30
0.0
 10
-1.15912
 20
0.53163
 30
0.0
 10
-1.18486
 20
0.55077
 30
0.0
 10
-1.19643
 20
0.6024
 30
0.0
 10
-1.19643
 20
0.6024
 30
0.0
 10
-1.19943
 20
0.61593
 30
0.0
 10
-1.20077
 20
0.62893
 30
0.0
 10
-1.20077
 20
0.64139
 30
0.0
 10
-1.20077
 20
0.64139
 30
0.0
 10
-1.20077
 20
0.70263
 30
0.0
 10
-1.16908
 20
0.74963
 30
0.0
 10
-1.15137
 20
0.77135
 30
0.0
 10
-1.15137
 20
0.77135
 30
0.0
 10
-1.14462
 20
0.75613
 30
0.0
 10
-1.13439
 20
0.74286
 30
0.0
 10
-1.12154
 20
0.73041
 30
0.0
 10
-1.12154
 20
0.73041
 30
0.0
 10
-1.09112
 20
0.70085
 30
0.0
 10
-1.05363
 20
0.66443
 30
0.0
 10
-1.05363
 20
0.56242
 30
0.0
 10
-1.05363
 20
0.56242
 30
0.0
 10
-1.05363
 20
0.55657
 30
0.0
 10
-1.0537
 20
0.5504
 30
0.0
 10
-1.05398
 20
0.54401
 30
0.0
 10
-1.05398
 20
0.54401
 30
0.0
 10
-1.05446
 20
0.53848
 30
0.0
 10
-1.0547
 20
0.53306
 30
0.0
 10
-1.0547
 20
0.5278
 30
0.0
 10
-1.0547
 20
0.5278
 30
0.0
 10
-1.0547
 20
0.45926
 30
0.0
 10
-1.01419
 20
0.42402
 30
0.0
 10
-0.97381
 20
0.42037
 30
0.0
 10
-0.97381
 20
0.42037
 30
0.0
 10
-0.94194
 20
0.41761
 30
0.0
 10
-0.9284
 20
0.43906
 30
0.0
 10
-0.92582
 20
0.46691
 30
0.0
 10
-0.92582
 20
0.46691
 30
0.0
 10
-0.92334
 20
0.43906
 30
0.0
 10
-0.90973
 20
0.41761
 30
0.0
 10
-0.87793
 20
0.42037
 30
0.0
 10
-0.87793
 20
0.42037
 30
0.0
 10
-0.83752
 20
0.42402
 30
0.0
 10
-0.79694
 20
0.45926
 30
0.0
 10
-0.79694
 20
0.5278
 30
0.0
 10
-0.79694
 20
0.5278
 30
0.0
 10
-0.79694
 20
0.53306
 30
0.0
 10
-0.79721
 20
0.53848
 30
0.0
 10
-0.79763
 20
0.54401
 30
0.0
 10
-0.79763
 20
0.54401
 30
0.0
 10
-0.79791
 20
0.5504
 30
0.0
 10
-0.79807
 20
0.55657
 30
0.0
 10
-0.79807
 20
0.56242
 30
0.0
 10
-0.79807
 20
0.56242
 30
0.0
 10
-0.79807
 20
0.66443
 30
0.0
 10
-0.76052
 20
0.70085
 30
0.0
 10
-0.73007
 20
0.73041
 30
0.0
 10
-0.73007
 20
0.73041
 30
0.0
 10
-0.71725
 20
0.74286
 30
0.0
 10
-0.70712
 20
0.75613
 30
0.0
 10
-0.70027
 20
0.77135
 30
0.0
 10
-0.70027
 20
0.77135
 30
0.0
 10
-0.68253
 20
0.74963
 30
0.0
 10
-0.65083
 20
0.70263
 30
0.0
 10
-0.65083
 20
0.64139
 30
0.0
 10
-0.65083
 20
0.64139
 30
0.0
 10
-0.65083
 20
0.62893
 30
0.0
 10
-0.65218
 20
0.61593
 30
0.0
 10
-0.65521
 20
0.6024
 30
0.0
 10
-0.65521
 20
0.6024
 30
0.0
 10
-0.66685
 20
0.55077
 30
0.0
 10
-0.69252
 20
0.53163
 30
0.0
 10
-0.71973
 20
0.51134
 30
0.0
 10
-0.71973
 20
0.51134
 30
0.0
 10
-0.74909
 20
0.48934
 30
0.0
 10
-0.77954
 20
0.46674
 30
0.0
 10
-0.79026
 20
0.40585
 30
0.0
 10
-0.79026
 20
0.40585
 30
0.0
 10
-0.79026
 20
0.40585
 30
0.0
 10
-0.79094
 20
0.40194
 30
0.0
 10
-0.79094
 20
0.40194
 30
0.0
 10
-0.79094
 20
0.40194
 30
0.0
 10
-0.79094
 20
0.40194
 30
0.0
 10
-0.78902
 20
0.39837
 30
0.0
 10
-0.78902
 20
0.39837
 30
0.0
 10
-0.78902
 20
0.39837
 30
0.0
 10
-0.76104
 20
0.3479
 30
0.0
 10
-0.71488
 20
0.33366
 30
0.0
 10
-0.66544
 20
0.36037
 30
0.0
 10
-0.66544
 20
0.36037
 30
0.0
 10
-0.6035
 20
0.39393
 30
0.0
 10
-0.54262
 20
0.49113
 30
0.0
 10
-0.54262
 20
0.58201
 30
0.0
 10
-0.54262
 20
0.58201
 30
0.0
 10
-0.54262
 20
0.60969
 30
0.0
 10
-0.5482
 20
0.63677
 30
0.0
 10
-0.56123
 20
0.66133
 30
0.0
 10
-0.56123
 20
0.66133
 30
0.0
 10
-0.62048
 20
0.76219
 30
0.0
 10
-0.63261
 20
0.81933
 30
0.0
 10
-0.63261
 20
0.86044
 30
0.0
 10
-0.63261
 20
0.86044
 30
0.0
 10
-0.63261
 20
0.8755
 30
0.0
 10
-0.63089
 20
0.88849
 30
0.0
 10
-0.6294
 20
0.9006
 30
0.0
 10
-0.6294
 20
0.9006
 30
0.0
 10
-0.62806
 20
0.91145
 30
0.0
 10
-0.62672
 20
0.92179
 30
0.0
 10
-0.62672
 20
0.93236
 30
0.0
 10
-0.62672
 20
0.93236
 30
0.0
 10
-0.62672
 20
0.94778
 30
0.0
 10
-0.63188
 20
0.96468
 30
0.0
 10
-0.64115
 20
0.98337
 30
0.0
 10
-0.64115
 20
0.98337
 30
0.0
 10
-0.60625
 20
0.97163
 30
0.0
 10
-0.511
 20
0.9371
 30
0.0
 10
-0.42776
 20
0.78898
 30
0.0
 10
-0.42776
 20
0.78898
 30
0.0
 10
-0.44619
 20
0.99415
 30
0.0
 10
-0.41684
 20
1.13418
 30
0.0
 10
-0.34284
 20
1.19398
 30
0.0
 10
-0.34284
 20
1.19398
 30
0.0
 10
-0.28834
 20
1.23806
 30
0.0
 10
-0.22033
 20
1.22977
 30
0.0
 10
-0.1729
 20
1.215
 30
0.0
 10
-0.1729
 20
1.215
 30
0.0
 10
-0.09517
 20
1.19078
 30
0.0
 10
-0.07223
 20
1.11128
 30
0.0
 10
-0.08983
 20
1.04524
 30
0.0
 10
-0.08983
 20
1.04524
 30
0.0
 10
-0.10158
 20
1.00117
 30
0.0
 10
-0.13338
 20
0.96121
 30
0.0
 10
-0.17789
 20
0.97127
 30
0.0
 10
-0.17789
 20
0.97127
 30
0.0
 10
-0.20566
 20
0.97751
 30
0.0
 10
-0.22147
 20
0.99174
 30
0.0
 10
-0.22247
 20
1.01134
 30
0.0
 10
-0.22247
 20
1.01134
 30
0.0
 10
-0.22336
 20
1.0293
 30
0.0
 10
-0.21117
 20
1.04827
 30
0.0
 10
-0.19525
 20
1.05361
 30
0.0
 10
-0.19525
 20
1.05361
 30
0.0
 10
-0.18099
 20
1.05842
 30
0.0
 10
-0.16649
 20
1.05113
 30
0.0
 10
-0.15429
 20
1.03313
 30
0.0
 10
-0.15429
 20
1.03313
 30
0.0
 10
-0.15429
 20
1.03313
 30
0.0
 10
-0.14737
 20
1.02281
 30
0.0
 10
-0.14737
 20
1.02281
 30
0.0
 10
-0.14737
 20
1.02281
 30
0.0
 10
-0.14737
 20
1.02281
 30
0.0
 10
-0.13772
 20
1.03065
 30
0.0
 10
-0.13772
 20
1.03065
 30
0.0
 10
-0.13772
 20
1.03065
 30
0.0
 10
-0.11467
 20
1.04934
 30
0.0
 10
-0.10703
 20
1.0732
 30
0.0
 10
-0.11636
 20
1.09785
 30
0.0
 10
-0.11636
 20
1.09785
 30
0.0
 10
-0.13204
 20
1.13917
 30
0.0
 10
-0.19257
 20
1.17192
 30
0.0
 10
-0.24855
 20
1.16942
 30
0.0
 10
-0.24855
 20
1.16942
 30
0.0
 10
-0.30154
 20
1.167
 30
0.0
 10
-0.34071
 20
1.13418
 30
0.0
 10
-0.3561
 20
1.07933
 30
0.0
 10
-0.3561
 20
1.07933
 30
0.0
 10
-0.38167
 20
0.9881
 30
0.0
 10
-0.33692
 20
0.88199
 30
0.0
 10
-0.29368
 20
0.77936
 30
0.0
 10
-0.29368
 20
0.77936
 30
0.0
 10
-0.25451
 20
0.68642
 30
0.0
 10
-0.21747
 20
0.59856
 30
0.0
 10
-0.23136
 20
0.52629
 30
0.0
 10
-0.23136
 20
0.52629
 30
0.0
 10
-0.27149
 20
0.34053
 30
0.0
 10
-0.38498
 20
0.28141
 30
0.0
 10
-0.46997
 20
0.2872
 30
0.0
 10
-0.46997
 20
0.2872
 30
0.0
 10
-0.51672
 20
0.2904
 30
0.0
 10
-0.55247
 20
0.31409
 30
0.0
 10
-0.55816
 20
0.34425
 30
0.0
 10
-0.55816
 20
0.34425
 30
0.0
 10
-0.48733
 20
0.38797
 30
0.0
 10
-0.39476
 20
0.48846
 30
0.0
 10
-0.41409
 20
0.70993
 30
0.0
 10
-0.41409
 20
0.70993
 30
0.0
 10
-0.4226
 20
0.46781
 30
0.0
 10
-0.51672
 20
0.39258
 30
0.0
 10
-0.58248
 20
0.35646
 30
0.0
 10
-0.58248
 20
0.35646
 30
0.0
 10
-0.6682
 20
0.30937
 30
0.0
 10
-0.76211
 20
0.314
 30
0.0
 10
-0.80342
 20
0.34559
 30
0.0
 10
-0.80342
 20
0.34559
 30
0.0
 10
-0.80342
 20
0.34559
 30
0.0
 10
-0.80965
 20
0.3503
 30
0.0
 10
-0.80965
 20
0.3503
 30
0.0
 10
-0.80965
 20
0.3503
 30
0.0
 10
-0.80965
 20
0.3503
 30
0.0
 10
-0.92582
 20
0.27696
 30
0.0
 10
-0.92582
 20
0.27696
 30
0.0
  0
SPLINE
  5
8D
330
1F
100
AcDbEntity
  8
Layer 1
100
AcDbSpline
210
0.0
220
0.0
230
1.0
 70
    11
 71
     3
 72
    84
 73
    80
 74
     0
 42
0.0000000001
 43
0.0000000001
 40
0.0
 40
0.0
 40
0.0
 40
0.0
 40
0.05
 40
0.05
 40
0.05
 40
0.05
 40
0.1
 40
0.1
 40
0.1
 40
0.1
 40
0.15
 40
0.15
 40
0.15
 40
0.15
 40
0.2
 40
0.2
 40
0.2
 40
0.2
 40
0.25
 40
0.25
 40
0.25
 40
0.25
 40
0.3
 40
0.3
 40
0.3
 40
0.3
 40
0.35
 40
0.35
 40
0.35
 40
0.35
 40
0.4
 40
0.4
 40
0.4
 40
0.4
 40
0.45
 40
0.45
 40
0.45
 40
0.45
 40
0.4999999999999999
 40
0.4999999999999999
 40
0.4999999999999999
 40
0.4999999999999999
 40
0.5499999999999999
 40
0.5499999999999999
 40
0.5499999999999999
 40
0.5499999999999999
 40
0.6
 40
0.6
 40
0.6
 40
0.6
 40
0.65
 40
0.65
 40
0.65
 40
0.65
 40
0.7000000000000001
 40
0.7000000000000001
 40
0.7000000000000001
 40
0.7000000000000001
 40
0.7500000000000001
 40
0.7500000000000001
 40
0.7500000000000001
 40
0.7500000000000001
 40
0.8000000000000002
 40
0.8000000000000002
 40
0.8000000000000002
 40
0.8000000000000002
 40
0.8500000000000002
 40
0.8500000000000002
 40
0.8500000000000002
 40
0.8500000000000002
 40
0.9000000000000002
 40
0.9000000000000002
 40
0.9000000000000002
 40
0.9000000000000002
 40
0.9500000000000003
 40
0.9500000000000003
 40
0.9500000000000003
 40
0.9500000000000003
 40
1.0
 40
1.0
 40
1.0
 40
1.0
 10
-2.29108
 20
0.70209
 30
0.0
 10
-2.2405
 20
0.72364
 30
0.0
 10
-2.18666
 20
0.72257
 30
0.0
 10
-2.13147
 20
0.69871
 30
0.0
 10
-2.13147
 20
0.69871
 30
0.0
 10
-2.01585
 20
0.64886
 30
0.0
 10
-1.92076
 20
0.51153
 30
0.0
 10
-1.88145
 20
0.40505
 30
0.0
 10
-1.88145
 20
0.40505
 30
0.0
 10
-1.88145
 20
0.40505
 30
0.0
 10
-1.8809
 20
0.40523
 30
0.0
 10
-1.8809
 20
0.40523
 30
0.0
 10
-1.8809
 20
0.40523
 30
0.0
 10
-1.86378
 20
0.35787
 30
0.0
 10
-1.83577
 20
0.3098
 30
0.0
 10
-1.79088
 20
0.26308
 30
0.0
 10
-1.79088
 20
0.26308
 30
0.0
 10
-1.73314
 20
0.20281
 30
0.0
 10
-1.65942
 20
0.15883
 30
0.0
 10
-1.58955
 20
0.13907
 30
0.0
 10
-1.58955
 20
0.13907
 30
0.0
 10
-1.58955
 20
0.13907
 30
0.0
 10
-1.59
 20
0.13899
 30
0.0
 10
-1.59
 20
0.13899
 30
0.0
 10
-1.59
 20
0.13899
 30
0.0
 10
-1.58928
 20
0.13346
 30
0.0
 10
-1.59517
 20
0.12893
 30
0.0
 10
-1.60013
 20
0.12609
 30
0.0
 10
-1.60013
 20
0.12609
 30
0.0
 10
-1.63344
 20
0.10738
 30
0.0
 10
-1.73556
 20
0.10828
 30
0.0
 10
-1.82082
 20
0.17663
 30
0.0
 10
-1.82082
 20
0.17663
 30
0.0
 10
-1.90609
 20
0.24339
 30
0.0
 10
-1.9537
 20
0.32957
 30
0.0
 10
-1.99583
 20
0.40559
 30
0.0
 10
-1.99583
 20
0.40559
 30
0.0
 10
-2.03228
 20
0.47137
 30
0.0
 10
-2.06374
 20
0.52825
 30
0.0
 10
-2.11207
 20
0.56313
 30
0.0
 10
-2.11207
 20
0.56313
 30
0.0
 10
-2.18624
 20
0.63639
 30
0.0
 10
-2.32697
 20
0.63594
 30
0.0
 10
-2.38096
 20
0.58131
 30
0.0
 10
-2.38096
 20
0.58131
 30
0.0
 10
-2.39905
 20
0.56296
 30
0.0
 10
-2.43232
 20
0.51178
 30
0.0
 10
-2.35161
 20
0.43193
 30
0.0
 10
-2.35161
 20
0.43193
 30
0.0
 10
-2.35161
 20
0.43193
 30
0.0
 10
-2.33042
 20
0.41093
 30
0.0
 10
-2.33042
 20
0.41093
 30
0.0
 10
-2.33042
 20
0.41093
 30
0.0
 10
-2.33042
 20
0.41093
 30
0.0
 10
-2.33221
 20
0.44066
 30
0.0
 10
-2.33221
 20
0.44066
 30
0.0
 10
-2.33221
 20
0.44066
 30
0.0
 10
-2.33362
 20
0.46441
 30
0.0
 10
-2.32473
 20
0.48364
 30
0.0
 10
-2.30772
 20
0.49363
 30
0.0
 10
-2.30772
 20
0.49363
 30
0.0
 10
-2.29411
 20
0.50155
 30
0.0
 10
-2.27816
 20
0.50172
 30
0.0
 10
-2.26607
 20
0.49389
 30
0.0
 10
-2.26607
 20
0.49389
 30
0.0
 10
-2.25056
 20
0.484
 30
0.0
 10
-2.24371
 20
0.46328
 30
0.0
 10
-2.24646
 20
0.4354
 30
0.0
 10
-2.24646
 20
0.4354
 30
0.0
 10
-2.25032
 20
0.39758
 30
0.0
 10
-2.28384
 20
0.39017
 30
0.0
 10
-2.29821
 20
0.38876
 30
0.0
 10
-2.29821
 20
0.38876
 30
0.0
 10
-2.34475
 20
0.38421
 30
0.0
 10
-2.40597
 20
0.41494
 30
0.0
 10
-2.42364
 20
0.47261
 30
0.0
 10
-2.42364
 20
0.47261
 30
0.0
 10
-2.43322
 20
0.51695
 30
0.0
 10
-2.44001
 20
0.62999
 30
0.0
 10
-2.29108
 20
0.70209
 30
0.0
  0
SPLINE
  5
8E
330
1F
100
AcDbEntity
  8
Layer 1
100
AcDbSpline
210
0.0
220
0.0
230
1.0
 70
    11
 71
     3
 72
    12
 73
     8
 74
     0
 42
0.0000000001
 43
0.0000000001
 40
0.0
 40
0.0
 40
0.0
 40
0.0
 40
0.5
 40
0.5
 40
0.5
 40
0.5
 40
1.0
 40
1.0
 40
1.0
 40
1.0
 10
-0.92582
 20
0.60123
 30
0.0
 10
-1.07606
 20
1.02913
 30
0.0
 10
-0.94718
 20
0.88787
 30
0.0
 10
-0.92582
 20
1.00573
 30
0.0
 10
-0.92582
 20
1.00573
 30
0.0
 10
-0.90446
 20
0.88787
 30
0.0
 10
-0.77555
 20
1.02913
 30
0.0
 10
-0.92582
 20
0.60123
 30
0.0
  0
SPLINE
  5
8F
330
1F
100
AcDbEntity
  8
Layer 1
100
AcDbSpline
210
0.0
220
0.0
230
1.0
 70
    11
 71
     3
 72
    60
 73
    56
 74
     0
 42
0.0000000001
 43
0.0000000001
 40
0.0
 40
0.0
 40
0.0
 40
0.0
 40
0.0714285714285714
 40
0.0714285714285714
 40
0.0714285714285714
 40
0.0714285714285714
 40
0.1428571428571428
 40
0.1428571428571428
 40
0.1428571428571428
 40
0.1428571428571428
 40
0.2142857142857143
 40
0.2142857142857143
 40
0.2142857142857143
 40
0.2142857142857143
 40
0.2857142857142857
 40
0.2857142857142857
 40
0.2857142857142857
 40
0.2857142857142857
 40
0.3571428571428571
 40
0.3571428571428571
 40
0.3571428571428571
 40
0.3571428571428571
 40
0.4285714285714285
 40
0.4285714285714285
 40
0.4285714285714285
 40
0.4285714285714285
 40
0.4999999999999999
 40
0.4999999999999999
 40
0.4999999999999999
 40
0.4999999999999999
 40
0.5714285714285713
 40
0.5714285714285713
 40
0.5714285714285713
 40
0.5714285714285713
 40
0.6428571428571427
 40
0.6428571428571427
 40
0.6428571428571427
 40
0.6428571428571427
 40
0.7142857142857141
 40
0.7142857142857141
 40
0.7142857142857141
 40
0.7142857142857141
 40
0.7857142857142855
 40
0.7857142857142855
 40
0.7857142857142855
 40
0.7857142857142855
 40
0.8571428571428569
 40
0.8571428571428569
 40
0.8571428571428569
 40
0.8571428571428569
 40
0.9285714285714283
 40
0.9285714285714283
 40
0.9285714285714283
 40
0.9285714285714283
 40
1.0
 40
1.0
 40
1.0
 40
1.0
 10
-0.92582
 20
1.56688
 30
0.0
 10
-1.01315
 20
1.6185
 30
0.0
 10
-0.90508
 20
1.36641
 30
0.0
 10
-1.03985
 20
1.30383
 30
0.0
 10
-1.03985
 20
1.30383
 30
0.0
 10
-1.24528
 20
1.22755
 30
0.0
 10
-1.34602
 20
1.76761
 30
0.0
 10
-1.56196
 20
1.52609
 30
0.0
 10
-1.56196
 20
1.52609
 30
0.0
 10
-1.58624
 20
1.81949
 30
0.0
 10
-1.29017
 20
1.73429
 30
0.0
 10
-1.25283
 20
1.55983
 30
0.0
 10
-1.25283
 20
1.55983
 30
0.0
 10
-1.18486
 20
1.29225
 30
0.0
 10
-0.94435
 20
1.32937
 30
0.0
 10
-1.08274
 20
1.54311
 30
0.0
 10
-1.08274
 20
1.54311
 30
0.0
 10
-1.23347
 20
1.70672
 30
0.0
 10
-1.33933
 20
1.81842
 30
0.0
 10
-1.23612
 20
1.96851
 30
0.0
 10
-1.23612
 20
1.96851
 30
0.0
 10
-1.08044
 20
1.95078
 30
0.0
 10
-1.12822
 20
1.69851
 30
0.0
 10
-1.00833
 20
1.71428
 30
0.0
 10
-1.00833
 20
1.71428
 30
0.0
 10
-0.96506
 20
1.73724
 30
0.0
 10
-1.12653
 20
1.99031
 30
0.0
 10
-0.92582
 20
2.18214
 30
0.0
 10
-0.92582
 20
2.18214
 30
0.0
 10
-0.72518
 20
1.99031
 30
0.0
 10
-0.88665
 20
1.73724
 30
0.0
 10
-0.84331
 20
1.71428
 30
0.0
 10
-0.84331
 20
1.71428
 30
0.0
 10
-0.72349
 20
1.69851
 30
0.0
 10
-0.7712
 20
1.95078
 30
0.0
 10
-0.61552
 20
1.96851
 30
0.0
 10
-0.61552
 20
1.96851
 30
0.0
 10
-0.51234
 20
1.81842
 30
0.0
 10
-0.61817
 20
1.70672
 30
0.0
 10
-0.76897
 20
1.54311
 30
0.0
 10
-0.76897
 20
1.54311
 30
0.0
 10
-0.90732
 20
1.32937
 30
0.0
 10
-0.66678
 20
1.29225
 30
0.0
 10
-0.59878
 20
1.55983
 30
0.0
 10
-0.59878
 20
1.55983
 30
0.0
 10
-0.56157
 20
1.73429
 30
0.0
 10
-0.26539
 20
1.81949
 30
0.0
 10
-0.28975
 20
1.52609
 30
0.0
 10
-0.28975
 20
1.52609
 30
0.0
 10
-0.50559
 20
1.76761
 30
0.0
 10
-0.60636
 20
1.22755
 30
0.0
 10
-0.81189
 20
1.30383
 30
0.0
 10
-0.81189
 20
1.30383
 30
0.0
 10
-0.94653
 20
1.36641
 30
0.0
 10
-0.83849
 20
1.51515
 30
0.0
 10
-0.92582
 20
1.56688
 30
0.0
  0
SPLINE
  5
90
330
1F
100
AcDbEntity
  8
Layer 1
100
AcDbSpline
210
0.0
220
0.0
230
1.0
 70
    11
 71
     3
 72
    16
 73
    12
 74
     0
 42
0.0000000001
 43
0.0000000001
 40
0.0
 40
0.0
 40
0.0
 40
0.0
 40
0.3333333333333333
 40
0.3333333333333333
 40
0.3333333333333333
 40
0.3333333333333333
 40
0.6666666666666666
 40
0.6666666666666666
 40
0.6666666666666666
 40
0.6666666666666666
 40
1.0
 40
1.0
 40
1.0
 40
1.0
 10
-1.46815
 20
1.49636
 30
0.0
 10
-1.45399
 20
1.45141
 30
0.0
 10
-1.46866
 20
1.27527
 30
0.0
 10
-1.57966
 20
1.41348
 30
0.0
 10
-1.57966
 20
1.41348
 30
0.0
 10
-1.65367
 20
1.3543
 30
0.0
 10
-1.64216
 20
1.22354
 30
0.0
 10
-1.44596
 20
1.2952
 30
0.0
 10
-1.44596
 20
1.2952
 30
0.0
 10
-1.29879
 20
1.36481
 30
0.0
 10
-1.46815
 20
1.49636
 30
0.0
 10
-1.46815
 20
1.49636
 30
0.0
  0
SPLINE
  5
91
330
1F
100
AcDbEntity
  8
Layer 1
100
AcDbSpline
210
0.0
220
0.0
230
1.0
 70
    11
 71
     3
 72
   116
 73
   112
 74
     0
 42
0.0000000001
 43
0.0000000001
 40
0.0
 40
0.0
 40
0.0
 40
0.0
 40
0.0357142857142857
 40
0.0357142857142857
 40
0.0357142857142857
 40
0.0357142857142857
 40
0.0714285714285714
 40
0.0714285714285714
 40
0.0714285714285714
 40
0.0714285714285714
 40
0.1071428571428571
 40
0.1071428571428571
 40
0.1071428571428571
 40
0.1071428571428571
 40
0.1428571428571428
 40
0.1428571428571428
 40
0.1428571428571428
 40
0.1428571428571428
 40
0.1785714285714285
 40
0.1785714285714285
 40
0.1785714285714285
 40
0.1785714285714285
 40
0.2142857142857142
 40
0.2142857142857142
 40
0.2142857142857142
 40
0.2142857142857142
 40
0.2499999999999999
 40
0.2499999999999999
 40
0.2499999999999999
 40
0.2499999999999999
 40
0.2857142857142856
 40
0.2857142857142856
 40
0.2857142857142856
 40
0.2857142857142856
 40
0.3214285714285713
 40
0.3214285714285713
 40
0.3214285714285713
 40
0.3214285714285713
 40
0.357142857142857
 40
0.357142857142857
 40
0.357142857142857
 40
0.357142857142857
 40
0.3928571428571427
 40
0.3928571428571427
 40
0.3928571428571427
 40
0.3928571428571427
 40
0.4285714285714284
 40
0.4285714285714284
 40
0.4285714285714284
 40
0.4285714285714284
 40
0.4642857142857141
 40
0.4642857142857141
 40
0.4642857142857141
 40
0.4642857142857141
 40
0.4999999999999998
 40
0.4999999999999998
 40
0.4999999999999998
 40
0.4999999999999998
 40
0.5357142857142856
 40
0.5357142857142856
 40
0.5357142857142856
 40
0.5357142857142856
 40
0.5714285714285713
 40
0.5714285714285713
 40
0.5714285714285713
 40
0.5714285714285713
 40
0.607142857142857
 40
0.607142857142857
 40
0.607142857142857
 40
0.607142857142857
 40
0.6428571428571427
 40
0.6428571428571427
 40
0.6428571428571427
 40
0.6428571428571427
 40
0.6785714285714284
 40
0.6785714285714284
 40
0.6785714285714284
 40
0.6785714285714284
 40
0.7142857142857141
 40
0.7142857142857141
 40
0.7142857142857141
 40
0.7142857142857141
 40
0.7499999999999998
 40
0.7499999999999998
 40
0.7499999999999998
 40
0.7499999999999998
 40
0.7857142857142855
 40
0.7857142857142855
 40
0.7857142857142855
 40
0.7857142857142855
 40
0.8214285714285712
 40
0.8214285714285712
 40
0.8214285714285712
 40
0.8214285714285712
 40
0.8571428571428569
 40
0.8571428571428569
 40
0.8571428571428569
 40
0.8571428571428569
 40
0.8928571428571426
 40
0.8928571428571426
 40
0.8928571428571426
 40
0.8928571428571426
 40
0.9285714285714283
 40
0.9285714285714283
 40
0.9285714285714283
 40
0.9285714285714283
 40
0.964285714285714
 40
0.964285714285714
 40
0.964285714285714
 40
0.964285714285714
 40
1.0
 40
1.0
 40
1.0
 40
1.0
 10
-1.95291
 20
1.36515
 30
0.0
 10
-1.60137
 20
1.50261
 30
0.0
 10
-1.8858
 20
1.8429
 30
0.0
 10
-2.12568
 20
1.76733
 30
0.0
 10
-2.12568
 20
1.76733
 30
0.0
 10
-2.12568
 20
1.76733
 30
0.0
 10
-2.13839
 20
1.90309
 30
0.0
 10
-2.13839
 20
1.90309
 30
0.0
 10
-2.13839
 20
1.90309
 30
0.0
 10
-2.13839
 20
1.90309
 30
0.0
 10
-2.20436
 20
1.89657
 30
0.0
 10
-2.25005
 20
1.89871
 30
0.0
 10
-2.25005
 20
1.89871
 30
0.0
 10
-2.43973
 20
1.90796
 30
0.0
 10
-2.38871
 20
1.80605
 30
0.0
 10
-2.3751
 20
1.67777
 30
0.0
 10
-2.3751
 20
1.67777
 30
0.0
 10
-2.36139
 20
1.54951
 30
0.0
 10
-2.55439
 20
1.50998
 30
0.0
 10
-2.46037
 20
1.35189
 30
0.0
 10
-2.46037
 20
1.35189
 30
0.0
 10
-2.27792
 20
1.10942
 30
0.0
 10
-2.61943
 20
1.04737
 30
0.0
 10
-2.65254
 20
1.34674
 30
0.0
 10
-2.65254
 20
1.34674
 30
0.0
 10
-2.68457
 20
1.48125
 30
0.0
 10
-2.4295
 20
1.5854
 30
0.0
 10
-2.46519
 20
1.72032
 30
0.0
 10
-2.46519
 20
1.72032
 30
0.0
 10
-2.55001
 20
1.71624
 30
0.0
 10
-2.5929
 20
1.71043
 30
0.0
 10
-2.65863
 20
1.56206
 30
0.0
 10
-2.65863
 20
1.56206
 30
0.0
 10
-2.7242
 20
1.41367
 30
0.0
 10
-2.73412
 20
1.5414
 30
0.0
 10
-2.73794
 20
1.59937
 30
0.0
 10
-2.73794
 20
1.59937
 30
0.0
 10
-2.74176
 20
1.6574
 30
0.0
 10
-2.69191
 20
1.77338
 30
0.0
 10
-2.52686
 20
1.86257
 30
0.0
 10
-2.52686
 20
1.86257
 30
0.0
 10
-2.36177
 20
1.95187
 30
0.0
 10
-2.45475
 20
2.05992
 30
0.0
 10
-2.38551
 20
2.11975
 30
0.0
 10
-2.38551
 20
2.11975
 30
0.0
 10
-2.38551
 20
2.11975
 30
0.0
 10
-2.49196
 20
2.18364
 30
0.0
 10
-2.55776
 20
1.94713
 30
0.0
 10
-2.55776
 20
1.94713
 30
0.0
 10
-2.62367
 20
1.71062
 30
0.0
 10
-2.80085
 20
1.81842
 30
0.0
 10
-2.67197
 20
1.98141
 30
0.0
 10
-2.67197
 20
1.98141
 30
0.0
 10
-2.50178
 20
2.19647
 30
0.0
 10
-2.64651
 20
2.37646
 30
0.0
 10
-2.70828
 20
2.37315
 30
0.0
 10
-2.70828
 20
2.37315
 30
0.0
 10
-2.67782
 20
2.34237
 30
0.0
 10
-2.70435
 20
2.20029
 30
0.0
 10
-2.81218
 20
2.34094
 30
0.0
 10
-2.81218
 20
2.34094
 30
0.0
 10
-2.94434
 20
2.50019
 30
0.0
 10
-3.20489
 20
2.35465
 30
0.0
 10
-3.12817
 20
2.15294
 30
0.0
 10
-3.12817
 20
2.15294
 30
0.0
 10
-3.11473
 20
2.25459
 30
0.0
 10
-2.99553
 20
2.25796
 30
0.0
 10
-2.94709
 20
2.24773
 30
0.0
 10
-2.94709
 20
2.24773
 30
0.0
 10
-2.67124
 20
2.2189
 30
0.0
 10
-2.79375
 20
2.01674
 30
0.0
 10
-2.81242
 20
1.58627
 30
0.0
 10
-2.81242
 20
1.58627
 30
0.0
 10
-2.81218
 20
1.29892
 30
0.0
 10
-2.7016
 20
1.15019
 30
0.0
 10
-2.49272
 20
1.0497
 30
0.0
 10
-2.49272
 20
1.0497
 30
0.0
 10
-2.28384
 20
0.94929
 30
0.0
 10
-2.00134
 20
1.05744
 30
0.0
 10
-1.96662
 20
1.02986
 30
0.0
 10
-1.96662
 20
1.02986
 30
0.0
 10
-1.92666
 20
0.89818
 30
0.0
 10
-2.28742
 20
1.03787
 30
0.0
 10
-2.52314
 20
0.82003
 30
0.0
 10
-2.52314
 20
0.82003
 30
0.0
 10
-2.30362
 20
0.8868
 30
0.0
 10
-2.12861
 20
0.84827
 30
0.0
 10
-2.01995
 20
0.83009
 30
0.0
 10
-2.01995
 20
0.83009
 30
0.0
 10
-1.91125
 20
0.81185
 30
0.0
 10
-1.8591
 20
0.85859
 30
0.0
 10
-1.78334
 20
0.90986
 30
0.0
 10
-1.78334
 20
0.90986
 30
0.0
 10
-1.86802
 20
0.99387
 30
0.0
 10
-1.79464
 20
1.13336
 30
0.0
 10
-1.83925
 20
1.12411
 30
0.0
 10
-1.83925
 20
1.12411
 30
0.0
 10
-2.31547
 20
0.99949
 30
0.0
 10
-2.5332
 20
1.64128
 30
0.0
 10
-2.13746
 20
1.70759
 30
0.0
 10
-2.13746
 20
1.70759
 30
0.0
 10
-1.71988
 20
1.73662
 30
0.0
 10
-1.93244
 20
1.25906
 30
0.0
 10
-2.06063
 20
1.44838
 30
0.0
 10
-2.06063
 20
1.44838
 30
0.0
 10
-1.95053
 20
1.49894
 30
0.0
 10
-2.02419
 20
1.66586
 30
0.0
 10
-2.12578
 20
1.56429
 30
0.0
 10
-2.12578
 20
1.56429
 30
0.0
 10
-2.18266
 20
1.51053
 30
0.0
 10
-2.12378
 20
1.31888
 30
0.0
 10
-1.95291
 20
1.36515
 30
0.0
  0
SPLINE
  5
92
330
1F
100
AcDbEntity
  8
Layer 1
100
AcDbSpline
210
0.0
220
0.0
230
1.0
 70
    11
 71
     3
 72
    16
 73
    12
 74
     0
 42
0.0000000001
 43
0.0000000001
 40
0.0
 40
0.0
 40
0.0
 40
0.0
 40
0.3333333333333333
 40
0.3333333333333333
 40
0.3333333333333333
 40
0.3333333333333333
 40
0.6666666666666666
 40
0.6666666666666666
 40
0.6666666666666666
 40
0.6666666666666666
 40
1.0
 40
1.0
 40
1.0
 40
1.0
 10
-1.59344
 20
1.82333
 30
0.0
 10
-1.58315
 20
1.81424
 30
0.0
 10
-1.54997
 20
1.77543
 30
0.0
 10
-1.54997
 20
1.77543
 30
0.0
 10
-1.54997
 20
1.77543
 30
0.0
 10
-1.54997
 20
1.77543
 30
0.0
 10
-1.49102
 20
1.84423
 30
0.0
 10
-1.41702
 20
1.85358
 30
0.0
 10
-1.41702
 20
1.85358
 30
0.0
 10
-1.52547
 20
1.84495
 30
0.0
 10
-1.59344
 20
1.82333
 30
0.0
 10
-1.59344
 20
1.82333
 30
0.0
  0
SPLINE
  5
93
330
1F
100
AcDbEntity
  8
Layer 1
100
AcDbSpline
210
0.0
220
0.0
230
1.0
 70
    11
 71
     3
 72
    32
 73
    28
 74
     0
 42
0.0000000001
 43
0.0000000001
 40
0.0
 40
0.0
 40
0.0
 40
0.0
 40
0.1428571428571428
 40
0.1428571428571428
 40
0.1428571428571428
 40
0.1428571428571428
 40
0.2857142857142857
 40
0.2857142857142857
 40
0.2857142857142857
 40
0.2857142857142857
 40
0.4285714285714285
 40
0.4285714285714285
 40
0.4285714285714285
 40
0.4285714285714285
 40
0.5714285714285714
 40
0.5714285714285714
 40
0.5714285714285714
 40
0.5714285714285714
 40
0.7142857142857142
 40
0.7142857142857142
 40
0.7142857142857142
 40
0.7142857142857142
 40
0.857142857142857
 40
0.857142857142857
 40
0.857142857142857
 40
0.857142857142857
 40
1.0
 40
1.0
 40
1.0
 40
1.0
 10
-1.55913
 20
2.57131
 30
0.0
 10
-1.50411
 20
3.01611
 30
0.0
 10
-1.08433
 20
2.83025
 30
0.0
 10
-1.06762
 20
3.24559
 30
0.0
 10
-1.06762
 20
3.24559
 30
0.0
 10
-0.83291
 20
2.87743
 30
0.0
 10
-1.32132
 20
2.94979
 30
0.0
 10
-1.31418
 20
2.83006
 30
0.0
 10
-1.31418
 20
2.83006
 30
0.0
 10
-0.98098
 20
2.91615
 30
0.0
 10
-0.86894
 20
2.51826
 30
0.0
 10
-1.14872
 20
2.4595
 30
0.0
 10
-1.14872
 20
2.4595
 30
0.0
 10
-1.33413
 20
2.41892
 30
0.0
 10
-1.33906
 20
2.64182
 30
0.0
 10
-1.26365
 20
2.66247
 30
0.0
 10
-1.26365
 20
2.66247
 30
0.0
 10
-1.18806
 20
2.68311
 30
0.0
 10
-1.15981
 20
2.54904
 30
0.0
 10
-1.21504
 20
2.53723
 30
0.0
 10
-1.21504
 20
2.53723
 30
0.0
 10
-0.9673
 20
2.46992
 30
0.0
 10
-1.00382
 20
2.88855
 30
0.0
 10
-1.35777
 20
2.73234
 30
0.0
 10
-1.35777
 20
2.73234
 30
0.0
 10
-1.47817
 20
2.69084
 30
0.0
 10
-1.55913
 20
2.57131
 30
0.0
 10
-1.55913
 20
2.57131
 30
0.0
  0
SPLINE
  5
94
330
1F
100
AcDbEntity
  8
Layer 1
100
AcDbSpline
210
0.0
220
0.0
230
1.0
 70
    11
 71
     3
 72
   144
 73
   140
 74
     0
 42
0.0000000001
 43
0.0000000001
 40
0.0
 40
0.0
 40
0.0
 40
0.0
 40
0.0285714285714286
 40
0.0285714285714286
 40
0.0285714285714286
 40
0.0285714285714286
 40
0.0571428571428571
 40
0.0571428571428571
 40
0.0571428571428571
 40
0.0571428571428571
 40
0.0857142857142857
 40
0.0857142857142857
 40
0.0857142857142857
 40
0.0857142857142857
 40
0.1142857142857143
 40
0.1142857142857143
 40
0.1142857142857143
 40
0.1142857142857143
 40
0.1428571428571428
 40
0.1428571428571428
 40
0.1428571428571428
 40
0.1428571428571428
 40
0.1714285714285714
 40
0.1714285714285714
 40
0.1714285714285714
 40
0.1714285714285714
 40
0.2
 40
0.2
 40
0.2
 40
0.2
 40
0.2285714285714286
 40
0.2285714285714286
 40
0.2285714285714286
 40
0.2285714285714286
 40
0.2571428571428572
 40
0.2571428571428572
 40
0.2571428571428572
 40
0.2571428571428572
 40
0.2857142857142858
 40
0.2857142857142858
 40
0.2857142857142858
 40
0.2857142857142858
 40
0.3142857142857143
 40
0.3142857142857143
 40
0.3142857142857143
 40
0.3142857142857143
 40
0.3428571428571429
 40
0.3428571428571429
 40
0.3428571428571429
 40
0.3428571428571429
 40
0.3714285714285715
 40
0.3714285714285715
 40
0.3714285714285715
 40
0.3714285714285715
 40
0.4000000000000001
 40
0.4000000000000001
 40
0.4000000000000001
 40
0.4000000000000001
 40
0.4285714285714287
 40
0.4285714285714287
 40
0.4285714285714287
 40
0.4285714285714287
 40
0.4571428571428572
 40
0.4571428571428572
 40
0.4571428571428572
 40
0.4571428571428572
 40
0.4857142857142858
 40
0.4857142857142858
 40
0.4857142857142858
 40
0.4857142857142858
 40
0.5142857142857143
 40
0.5142857142857143
 40
0.5142857142857143
 40
0.5142857142857143
 40
0.5428571428571429
 40
0.5428571428571429
 40
0.5428571428571429
 40
0.5428571428571429
 40
0.5714285714285715
 40
0.5714285714285715
 40
0.5714285714285715
 40
0.5714285714285715
 40
0.6000000000000001
 40
0.6000000000000001
 40
0.6000000000000001
 40
0.6000000000000001
 40
0.6285714285714287
 40
0.6285714285714287
 40
0.6285714285714287
 40
0.6285714285714287
 40
0.6571428571428573
 40
0.6571428571428573
 40
0.6571428571428573
 40
0.6571428571428573
 40
0.6857142857142858
 40
0.6857142857142858
 40
0.6857142857142858
 40
0.6857142857142858
 40
0.7142857142857144
 40
0.7142857142857144
 40
0.7142857142857144
 40
0.7142857142857144
 40
0.742857142857143
 40
0.742857142857143
 40
0.742857142857143
 40
0.742857142857143
 40
0.7714285714285716
 40
0.7714285714285716
 40
0.7714285714285716
 40
0.7714285714285716
 40
0.8000000000000002
 40
0.8000000000000002
 40
0.8000000000000002
 40
0.8000000000000002
 40
0.8285714285714287
 40
0.8285714285714287
 40
0.8285714285714287
 40
0.8285714285714287
 40
0.8571428571428573
 40
0.8571428571428573
 40
0.8571428571428573
 40
0.8571428571428573
 40
0.8857142857142859
 40
0.8857142857142859
 40
0.8857142857142859
 40
0.8857142857142859
 40
0.9142857142857145
 40
0.9142857142857145
 40
0.9142857142857145
 40
0.9142857142857145
 40
0.9428571428571431
 40
0.9428571428571431
 40
0.9428571428571431
 40
0.9428571428571431
 40
0.9714285714285716
 40
0.9714285714285716
 40
0.9714285714285716
 40
0.9714285714285716
 40
1.0
 40
1.0
 40
1.0
 40
1.0
 10
-2.69023
 20
-2.46783
 30
0.0
 10
-2.70952
 20
-2.52658
 30
0.0
 10
-2.74979
 20
-2.68601
 30
0.0
 10
-2.70232
 20
-2.76122
 30
0.0
 10
-2.70232
 20
-2.76122
 30
0.0
 10
-2.82896
 20
-2.82113
 30
0.0
 10
-3.49135
 20
-3.07813
 30
0.0
 10
-3.49135
 20
-3.07813
 30
0.0
 10
-3.49135
 20
-3.07813
 30
0.0
 10
-3.49135
 20
-3.07813
 30
0.0
 10
-3.50113
 20
-3.00785
 30
0.0
 10
-3.5494
 20
-2.96703
 30
0.0
 10
-3.5494
 20
-2.96703
 30
0.0
 10
-3.45238
 20
-2.89947
 30
0.0
 10
-3.05106
 20
-2.8491
 30
0.0
 10
-3.21826
 20
-2.83849
 30
0.0
 10
-3.21826
 20
-2.83849
 30
0.0
 10
-3.38534
 20
-2.82781
 30
0.0
 10
-3.96915
 20
-2.78127
 30
0.0
 10
-4.21592
 20
-2.50336
 30
0.0
 10
-4.21592
 20
-2.50336
 30
0.0
 10
-4.68742
 20
-2.0425
 30
0.0
 10
-4.72641
 20
-1.58525
 30
0.0
 10
-4.84348
 20
-1.54301
 30
0.0
 10
-4.84348
 20
-1.54301
 30
0.0
 10
-4.68566
 20
-1.53702
 30
0.0
 10
-4.67064
 20
-1.74202
 30
0.0
 10
-4.62344
 20
-1.73293
 30
0.0
 10
-4.62344
 20
-1.73293
 30
0.0
 10
-4.57624
 20
-1.72394
 30
0.0
 10
-4.63436
 20
-1.55528
 30
0.0
 10
-4.57697
 20
-1.55528
 30
0.0
 10
-4.57697
 20
-1.55528
 30
0.0
 10
-4.46338
 20
-1.68139
 30
0.0
 10
-4.57631
 20
-1.92699
 30
0.0
 10
-4.46001
 20
-2.06111
 30
0.0
 10
-4.46001
 20
-2.06111
 30
0.0
 10
-4.34366
 20
-2.19529
 30
0.0
 10
-4.34294
 20
-1.95786
 30
0.0
 10
-4.37908
 20
-1.8841
 30
0.0
 10
-4.37908
 20
-1.8841
 30
0.0
 10
-4.41532
 20
-1.81037
 30
0.0
 10
-4.56163
 20
-1.52661
 30
0.0
 10
-4.43544
 20
-1.2675
 30
0.0
 10
-4.43544
 20
-1.2675
 30
0.0
 10
-4.36654
 20
-1.12336
 30
0.0
 10
-4.31989
 20
-1.26358
 30
0.0
 10
-4.34143
 20
-1.31057
 30
0.0
 10
-4.34143
 20
-1.31057
 30
0.0
 10
-4.36309
 20
-1.35759
 30
0.0
 10
-4.42145
 20
-1.68308
 30
0.0
 10
-4.32248
 20
-1.54301
 30
0.0
 10
-4.32248
 20
-1.54301
 30
0.0
 10
-4.27966
 20
-1.36469
 30
0.0
 10
-4.21137
 20
-1.10938
 30
0.0
 10
-3.95754
 20
-1.24649
 30
0.0
 10
-3.95754
 20
-1.24649
 30
0.0
 10
-4.16617
 20
-1.23037
 30
0.0
 10
-4.12511
 20
-1.35453
 30
0.0
 10
-4.19563
 20
-1.39504
 30
0.0
 10
-4.19563
 20
-1.39504
 30
0.0
 10
-4.26601
 20
-1.43545
 30
0.0
 10
-4.22633
 20
-1.48299
 30
0.0
 10
-4.28
 20
-1.54094
 30
0.0
 10
-4.28
 20
-1.54094
 30
0.0
 10
-4.33664
 20
-1.62152
 30
0.0
 10
-4.34467
 20
-1.94232
 30
0.0
 10
-4.27876
 20
-2.13876
 30
0.0
 10
-4.27876
 20
-2.13876
 30
0.0
 10
-4.22295
 20
-2.23808
 30
0.0
 10
-4.32799
 20
-2.30843
 30
0.0
 10
-4.16125
 20
-2.43773
 30
0.0
 10
-4.16125
 20
-2.43773
 30
0.0
 10
-3.94176
 20
-2.57412
 30
0.0
 10
-3.98138
 20
-2.64168
 30
0.0
 10
-3.76417
 20
-2.70872
 30
0.0
 10
-3.76417
 20
-2.70872
 30
0.0
 10
-3.57117
 20
-2.7266
 30
0.0
 10
-3.73168
 20
-2.57894
 30
0.0
 10
-3.74573
 20
-2.5694
 30
0.0
 10
-3.74573
 20
-2.5694
 30
0.0
 10
-3.85935
 20
-2.44327
 30
0.0
 10
-4.20434
 20
-2.53164
 30
0.0
 10
-4.16972
 20
-2.18379
 30
0.0
 10
-4.16972
 20
-2.18379
 30
0.0
 10
-4.09986
 20
-2.35015
 30
0.0
 10
-4.02375
 20
-2.38319
 30
0.0
 10
-3.94479
 20
-2.3362
 30
0.0
 10
-3.94479
 20
-2.3362
 30
0.0
 10
-4.07939
 20
-2.2532
 30
0.0
 10
-4.09159
 20
-2.11375
 30
0.0
 10
-4.07374
 20
-2.00878
 30
0.0
 10
-4.07374
 20
-2.00878
 30
0.0
 10
-4.01893
 20
-2.17321
 30
0.0
 10
-3.92691
 20
-2.08577
 30
0.0
 10
-3.85622
 20
-2.27512
 30
0.0
 10
-3.85622
 20
-2.27512
 30
0.0
 10
-3.81391
 20
-2.41871
 30
0.0
 10
-3.66929
 20
-2.48375
 30
0.0
 10
-3.69295
 20
-2.4308
 30
0.0
 10
-3.69295
 20
-2.4308
 30
0.0
 10
-3.71656
 20
-2.37792
 30
0.0
 10
-3.7848
 20
-2.37268
 30
0.0
 10
-3.74684
 20
-2.25903
 30
0.0
 10
-3.74684
 20
-2.25903
 30
0.0
 10
-3.60972
 20
-2.26561
 30
0.0
 10
-3.55856
 20
-2.54438
 30
0.0
 10
-3.32988
 20
-2.63981
 30
0.0
 10
-3.32988
 20
-2.63981
 30
0.0
 10
-3.52001
 20
-2.68742
 30
0.0
 10
-3.59825
 20
-2.49702
 30
0.0
 10
-3.7682
 20
-2.47834
 30
0.0
 10
-3.7682
 20
-2.47834
 30
0.0
 10
-3.65609
 20
-2.6158
 30
0.0
 10
-3.19655
 20
-2.964
 30
0.0
 10
-2.80853
 20
-2.72422
 30
0.0
 10
-2.80853
 20
-2.72422
 30
0.0
 10
-2.75734
 20
-2.68494
 30
0.0
 10
-2.76822
 20
-2.62221
 30
0.0
 10
-2.83595
 20
-2.61329
 30
0.0
 10
-2.83595
 20
-2.61329
 30
0.0
 10
-2.90368
 20
-2.6043
 30
0.0
 10
-2.99064
 20
-2.76897
 30
0.0
 10
-3.14677
 20
-2.733
 30
0.0
 10
-3.14677
 20
-2.733
 30
0.0
 10
-3.30042
 20
-2.67819
 30
0.0
 10
-3.2372
 20
-2.60605
 30
0.0
 10
-3.29167
 20
-2.58356
 30
0.0
 10
-3.29167
 20
-2.58356
 30
0.0
 10
-3.1692
 20
-2.64192
 30
0.0
 10
-2.9544
 20
-2.58221
 30
0.0
 10
-3.0297
 20
-2.57226
 30
0.0
 10
-3.0297
 20
-2.57226
 30
0.0
 10
-3.10505
 20
-2.56227
 30
0.0
 10
-3.28313
 20
-2.57708
 30
0.0
 10
-3.33253
 20
-2.37123
 30
0.0
 10
-3.33253
 20
-2.37123
 30
0.0
 10
-3.25918
 20
-2.45378
 30
0.0
 10
-2.91647
 20
-2.55658
 30
0.0
 10
-2.69023
 20
-2.46783
 30
0.0
  0
SPLINE
  5
95
330
1F
100
AcDbEntity
  8
Layer 1
100
AcDbSpline
210
0.0
220
0.0
230
1.0
 70
    11
 71
     3
 72
    16
 73
    12
 74
     0
 42
0.0000000001
 43
0.0000000001
 40
0.0
 40
0.0
 40
0.0
 40
0.0
 40
0.3333333333333333
 40
0.3333333333333333
 40
0.3333333333333333
 40
0.3333333333333333
 40
0.6666666666666666
 40
0.6666666666666666
 40
0.6666666666666666
 40
0.6666666666666666
 40
1.0
 40
1.0
 40
1.0
 40
1.0
 10
-2.94113
 20
-2.04767
 30
0.0
 10
-2.96866
 20
-2.13983
 30
0.0
 10
-3.0203
 20
-2.18272
 30
0.0
 10
-3.07859
 20
-2.10224
 30
0.0
 10
-3.07859
 20
-2.10224
 30
0.0
 10
-3.09816
 20
-2.07671
 30
0.0
 10
-3.13681
 20
-2.07919
 30
0.0
 10
-3.12148
 20
-2.10806
 30
0.0
 10
-3.12148
 20
-2.10806
 30
0.0
 10
-3.07852
 20
-2.21717
 30
0.0
 10
-2.90303
 20
-2.25197
 30
0.0
 10
-2.94113
 20
-2.04767
 30
0.0
  0
SPLINE
  5
96
330
1F
100
AcDbEntity
  8
Layer 1
100
AcDbSpline
210
0.0
220
0.0
230
1.0
 70
    11
 71
     3
 72
    16
 73
    12
 74
     0
 42
0.0000000001
 43
0.0000000001
 40
0.0
 40
0.0
 40
0.0
 40
0.0
 40
0.3333333333333333
 40
0.3333333333333333
 40
0.3333333333333333
 40
0.3333333333333333
 40
0.6666666666666666
 40
0.6666666666666666
 40
0.6666666666666666
 40
0.6666666666666666
 40
1.0
 40
1.0
 40
1.0
 40
1.0
 10
-2.83788
 20
-1.84679
 30
0.0
 10
-2.86541
 20
-1.93891
 30
0.0
 10
-2.91702
 20
-1.9819
 30
0.0
 10
-2.97534
 20
-1.90136
 30
0.0
 10
-2.97534
 20
-1.90136
 30
0.0
 10
-2.99501
 20
-1.87583
 30
0.0
 10
-3.03363
 20
-1.87828
 30
0.0
 10
-3.0183
 20
-1.90721
 30
0.0
 10
-3.0183
 20
-1.90721
 30
0.0
 10
-2.97524
 20
-2.01636
 30
0.0
 10
-2.79978
 20
-2.05108
 30
0.0
 10
-2.83788
 20
-1.84679
 30
0.0
  0
SPLINE
  5
97
330
1F
100
AcDbEntity
  8
Layer 1
100
AcDbSpline
210
0.0
220
0.0
230
1.0
 70
    11
 71
     3
 72
    16
 73
    12
 74
     0
 42
0.0000000001
 43
0.0000000001
 40
0.0
 40
0.0
 40
0.0
 40
0.0
 40
0.3333333333333333
 40
0.3333333333333333
 40
0.3333333333333333
 40
0.3333333333333333
 40
0.6666666666666666
 40
0.6666666666666666
 40
0.6666666666666666
 40
0.6666666666666666
 40
1.0
 40
1.0
 40
1.0
 40
1.0
 10
-3.0017
 20
-1.69482
 30
0.0
 10
-3.02915
 20
-1.78698
 30
0.0
 10
-3.0808
 20
-1.82998
 30
0.0
 10
-3.13909
 20
-1.74946
 30
0.0
 10
-3.13909
 20
-1.74946
 30
0.0
 10
-3.15869
 20
-1.72387
 30
0.0
 10
-3.19741
 20
-1.72635
 30
0.0
 10
-3.18201
 20
-1.75529
 30
0.0
 10
-3.18201
 20
-1.75529
 30
0.0
 10
-3.13902
 20
-1.86439
 30
0.0
 10
-2.96359
 20
-1.89912
 30
0.0
 10
-3.0017
 20
-1.69482
 30
0.0
  0
SPLINE
  5
98
330
1F
100
AcDbEntity
  8
Layer 1
100
AcDbSpline
210
0.0
220
0.0
230
1.0
 70
    11
 71
     3
 72
    16
 73
    12
 74
     0
 42
0.0000000001
 43
0.0000000001
 40
0.0
 40
0.0
 40
0.0
 40
0.0
 40
0.3333333333333333
 40
0.3333333333333333
 40
0.3333333333333333
 40
0.3333333333333333
 40
0.6666666666666666
 40
0.6666666666666666
 40
0.6666666666666666
 40
0.6666666666666666
 40
1.0
 40
1.0
 40
1.0
 40
1.0
 10
-3.10012
 20
-1.88871
 30
0.0
 10
-3.12765
 20
-1.98084
 30
0.0
 10
-3.17926
 20
-2.02383
 30
0.0
 10
-3.23758
 20
-1.94325
 30
0.0
 10
-3.23758
 20
-1.94325
 30
0.0
 10
-3.25722
 20
-1.91772
 30
0.0
 10
-3.29588
 20
-1.9202
 30
0.0
 10
-3.28054
 20
-1.94907
 30
0.0
 10
-3.28054
 20
-1.94907
 30
0.0
 10
-3.23748
 20
-2.05828
 30
0.0
 10
-3.06202
 20
-2.09297
 30
0.0
 10
-3.10012
 20
-1.88871
 30
0.0
  0
SPLINE
  5
99
330
1F
100
AcDbEntity
  8
Layer 1
100
AcDbSpline
210
0.0
220
0.0
230
1.0
 70
    11
 71
     3
 72
    36
 73
    32
 74
     0
 42
0.0000000001
 43
0.0000000001
 40
0.0
 40
0.0
 40
0.0
 40
0.0
 40
0.125
 40
0.125
 40
0.125
 40
0.125
 40
0.25
 40
0.25
 40
0.25
 40
0.25
 40
0.375
 40
0.375
 40
0.375
 40
0.375
 40
0.5
 40
0.5
 40
0.5
 40
0.5
 40
0.625
 40
0.625
 40
0.625
 40
0.625
 40
0.75
 40
0.75
 40
0.75
 40
0.75
 40
0.875
 40
0.875
 40
0.875
 40
0.875
 40
1.0
 40
1.0
 40
1.0
 40
1.0
 10
-0.92582
 20
-2.01921
 30
0.0
 10
-1.14479
 20
-1.80627
 30
0.0
 10
-0.9828
 20
-1.72466
 30
0.0
 10
-1.03069
 20
-1.66654
 30
0.0
 10
-1.03069
 20
-1.66654
 30
0.0
 10
-1.07031
 20
-1.63262
 30
0.0
 10
-1.13253
 20
-1.84269
 30
0.0
 10
-1.2583
 20
-1.73603
 30
0.0
 10
-1.2583
 20
-1.73603
 30
0.0
 10
-1.15113
 20
-1.70809
 30
0.0
 10
-1.16873
 20
-1.53719
 30
0.0
 10
-1.07231
 20
-1.50401
 30
0.0
 10
-1.07231
 20
-1.50401
 30
0.0
 10
-1.02077
 20
-1.48779
 30
0.0
 10
-0.99018
 20
-1.59499
 30
0.0
 10
-0.92582
 20
-1.58625
 30
0.0
 10
-0.92582
 20
-1.58625
 30
0.0
 10
-0.86146
 20
-1.57753
 30
0.0
 10
-0.83084
 20
-1.48779
 30
0.0
 10
-0.7793
 20
-1.50401
 30
0.0
 10
-0.7793
 20
-1.50401
 30
0.0
 10
-0.68301
 20
-1.53719
 30
0.0
 10
-0.70051
 20
-1.70809
 30
0.0
 10
-0.59344
 20
-1.73603
 30
0.0
 10
-0.59344
 20
-1.73603
 30
0.0
 10
-0.71912
 20
-1.84269
 30
0.0
 10
-0.78144
 20
-1.63262
 30
0.0
 10
-0.82095
 20
-1.66654
 30
0.0
 10
-0.82095
 20
-1.66654
 30
0.0
 10
-0.86884
 20
-1.72466
 30
0.0
 10
-0.70695
 20
-1.80627
 30
0.0
 10
-0.92582
 20
-2.01921
 30
0.0
  0
SPLINE
  5
9A
330
1F
100
AcDbEntity
  8
Layer 1
100
AcDbSpline
210
0.0
220
0.0
230
1.0
 70
    11
 71
     3
 72
    24
 73
    20
 74
     0
 42
0.0000000001
 43
0.0000000001
 40
0.0
 40
0.0
 40
0.0
 40
0.0
 40
0.2
 40
0.2
 40
0.2
 40
0.2
 40
0.4
 40
0.4
 40
0.4
 40
0.4
 40
0.6000000000000001
 40
0.6000000000000001
 40
0.6000000000000001
 40
0.6000000000000001
 40
0.8
 40
0.8
 40
0.8
 40
0.8
 40
1.0
 40
1.0
 40
1.0
 40
1.0
 10
-1.1534
 20
-1.89929
 30
0.0
 10
-1.16143
 20
-1.88534
 30
0.0
 10
-1.12877
 20
-1.84321
 30
0.0
 10
-1.0979
 20
-1.92778
 30
0.0
 10
-1.0979
 20
-1.92778
 30
0.0
 10
-1.04847
 20
-2.13359
 30
0.0
 10
-1.32555
 20
-2.50487
 30
0.0
 10
-1.56757
 20
-2.36555
 30
0.0
 10
-1.56757
 20
-2.36555
 30
0.0
 10
-1.36503
 20
-2.36937
 30
0.0
 10
-1.17132
 20
-2.28011
 30
0.0
 10
-1.1493
 20
-2.01287
 30
0.0
 10
-1.1493
 20
-2.01287
 30
0.0
 10
-1.22758
 20
-2.08302
 30
0.0
 10
-1.28311
 20
-2.11196
 30
0.0
 10
-1.38681
 20
-2.05615
 30
0.0
 10
-1.38681
 20
-2.05615
 30
0.0
 10
-1.3126
 20
-2.07368
 30
0.0
 10
-1.1141
 20
-1.99269
 30
0.0
 10
-1.1534
 20
-1.89929
 30
0.0
  0
SPLINE
  5
9B
330
1F
100
AcDbEntity
  8
Layer 1
100
AcDbSpline
210
0.0
220
0.0
230
1.0
 70
    11
 71
     3
 72
    20
 73
    16
 74
     0
 42
0.0000000001
 43
0.0000000001
 40
0.0
 40
0.0
 40
0.0
 40
0.0
 40
0.25
 40
0.25
 40
0.25
 40
0.25
 40
0.5
 40
0.5
 40
0.5
 40
0.5
 40
0.75
 40
0.75
 40
0.75
 40
0.75
 40
1.0
 40
1.0
 40
1.0
 40
1.0
 10
-0.92582
 20
-2.7371
 30
0.0
 10
-1.23764
 20
-2.63258
 30
0.0
 10
-1.04244
 20
-2.50787
 30
0.0
 10
-1.13928
 20
-2.38584
 30
0.0
 10
-1.13928
 20
-2.38584
 30
0.0
 10
-1.03806
 20
-2.38781
 30
0.0
 10
-0.94711
 20
-2.5387
 30
0.0
 10
-0.92582
 20
-2.5377
 30
0.0
 10
-0.92582
 20
-2.5377
 30
0.0
 10
-0.90463
 20
-2.53663
 30
0.0
 10
-0.81365
 20
-2.38781
 30
0.0
 10
-0.71236
 20
-2.38584
 30
0.0
 10
-0.71236
 20
-2.38584
 30
0.0
 10
-0.8092
 20
-2.50787
 30
0.0
 10
-0.61401
 20
-2.63258
 30
0.0
 10
-0.92582
 20
-2.7371
 30
0.0
  0
SPLINE
  5
9C
330
1F
100
AcDbEntity
  8
Layer 1
100
AcDbSpline
210
0.0
220
0.0
230
1.0
 70
    11
 71
     3
 72
    12
 73
     8
 74
     0
 42
0.0000000001
 43
0.0000000001
 40
0.0
 40
0.0
 40
0.0
 40
0.0
 40
0.5
 40
0.5
 40
0.5
 40
0.5
 40
1.0
 40
1.0
 40
1.0
 40
1.0
 10
-1.3422
 20
-2.84748
 30
0.0
 10
-1.3178
 20
-2.54804
 30
0.0
 10
-1.12288
 20
-2.59496
 30
0.0
 10
-1.22151
 20
-2.41327
 30
0.0
 10
-1.22151
 20
-2.41327
 30
0.0
 10
-1.30378
 20
-2.45598
 30
0.0
 10
-1.44686
 20
-2.56736
 30
0.0
 10
-1.3422
 20
-2.84748
 30
0.0
  0
SPLINE
  5
9D
330
1F
100
AcDbEntity
  8
Layer 1
100
AcDbSpline
210
0.0
220
0.0
230
1.0
 70
    11
 71
     3
 72
   128
 73
   124
 74
     0
 42
0.0000000001
 43
0.0000000001
 40
0.0
 40
0.0
 40
0.0
 40
0.0
 40
0.032258064516129
 40
0.032258064516129
 40
0.032258064516129
 40
0.032258064516129
 40
0.0645161290322581
 40
0.0645161290322581
 40
0.0645161290322581
 40
0.0645161290322581
 40
0.0967741935483871
 40
0.0967741935483871
 40
0.0967741935483871
 40
0.0967741935483871
 40
0.1290322580645161
 40
0.1290322580645161
 40
0.1290322580645161
 40
0.1290322580645161
 40
0.1612903225806452
 40
0.1612903225806452
 40
0.1612903225806452
 40
0.1612903225806452
 40
0.1935483870967742
 40
0.1935483870967742
 40
0.1935483870967742
 40
0.1935483870967742
 40
0.2258064516129032
 40
0.2258064516129032
 40
0.2258064516129032
 40
0.2258064516129032
 40
0.2580645161290323
 40
0.2580645161290323
 40
0.2580645161290323
 40
0.2580645161290323
 40
0.2903225806451613
 40
0.2903225806451613
 40
0.2903225806451613
 40
0.2903225806451613
 40
0.3225806451612903
 40
0.3225806451612903
 40
0.3225806451612903
 40
0.3225806451612903
 40
0.3548387096774193
 40
0.3548387096774193
 40
0.3548387096774193
 40
0.3548387096774193
 40
0.3870967741935483
 40
0.3870967741935483
 40
0.3870967741935483
 40
0.3870967741935483
 40
0.4193548387096773
 40
0.4193548387096773
 40
0.4193548387096773
 40
0.4193548387096773
 40
0.4516129032258063
 40
0.4516129032258063
 40
0.4516129032258063
 40
0.4516129032258063
 40
0.4838709677419353
 40
0.4838709677419353
 40
0.4838709677419353
 40
0.4838709677419353
 40
0.5161290322580643
 40
0.5161290322580643
 40
0.5161290322580643
 40
0.5161290322580643
 40
0.5483870967741933
 40
0.5483870967741933
 40
0.5483870967741933
 40
0.5483870967741933
 40
0.5806451612903223
 40
0.5806451612903223
 40
0.5806451612903223
 40
0.5806451612903223
 40
0.6129032258064513
 40
0.6129032258064513
 40
0.6129032258064513
 40
0.6129032258064513
 40
0.6451612903225803
 40
0.6451612903225803
 40
0.6451612903225803
 40
0.6451612903225803
 40
0.6774193548387093
 40
0.6774193548387093
 40
0.6774193548387093
 40
0.6774193548387093
 40
0.7096774193548383
 40
0.7096774193548383
 40
0.7096774193548383
 40
0.7096774193548383
 40
0.7419354838709673
 40
0.7419354838709673
 40
0.7419354838709673
 40
0.7419354838709673
 40
0.7741935483870963
 40
0.7741935483870963
 40
0.7741935483870963
 40
0.7741935483870963
 40
0.8064516129032253
 40
0.8064516129032253
 40
0.8064516129032253
 40
0.8064516129032253
 40
0.8387096774193543
 40
0.8387096774193543
 40
0.8387096774193543
 40
0.8387096774193543
 40
0.8709677419354833
 40
0.8709677419354833
 40
0.8709677419354833
 40
0.8709677419354833
 40
0.9032258064516123
 40
0.9032258064516123
 40
0.9032258064516123
 40
0.9032258064516123
 40
0.9354838709677413
 40
0.9354838709677413
 40
0.9354838709677413
 40
0.9354838709677413
 40
0.9677419354838703
 40
0.9677419354838703
 40
0.9677419354838703
 40
0.9677419354838703
 40
1.0
 40
1.0
 40
1.0
 40
1.0
 10
-0.97939
 20
-2.81314
 30
0.0
 10
-1.04413
 20
-2.92517
 30
0.0
 10
-0.98439
 20
-3.03845
 30
0.0
 10
-0.99658
 20
-3.10197
 30
0.0
 10
-0.99658
 20
-3.10197
 30
0.0
 10
-1.05997
 20
-3.07448
 30
0.0
 10
-1.12429
 20
-2.9241
 30
0.0
 10
-1.13635
 20
-2.91301
 30
0.0
 10
-1.13635
 20
-2.91301
 30
0.0
 10
-1.16856
 20
-2.9682
 30
0.0
 10
-1.1901
 20
-3.14531
 30
0.0
 10
-0.98439
 20
-3.2702
 30
0.0
 10
-0.98439
 20
-3.2702
 30
0.0
 10
-0.9356
 20
-3.29211
 30
0.0
 10
-0.96127
 20
-3.48597
 30
0.0
 10
-0.96127
 20
-3.48597
 30
0.0
 10
-0.96127
 20
-3.48597
 30
0.0
 10
-0.9632
 20
-3.52968
 30
0.0
 10
-1.1738
 20
-3.7605
 30
0.0
 10
-1.1738
 20
-3.7605
 30
0.0
 10
-1.1738
 20
-3.7605
 30
0.0
 10
-1.2078
 20
-3.71386
 30
0.0
 10
-1.33396
 20
-3.23364
 30
0.0
 10
-1.64271
 20
-3.26551
 30
0.0
 10
-1.64271
 20
-3.26551
 30
0.0
 10
-1.60406
 20
-3.36449
 30
0.0
 10
-1.58545
 20
-3.42633
 30
0.0
 10
-1.46467
 20
-3.44042
 30
0.0
 10
-1.46467
 20
-3.44042
 30
0.0
 10
-1.56099
 20
-3.4583
 30
0.0
 10
-1.58394
 20
-3.51652
 30
0.0
 10
-1.49422
 20
-3.5476
 30
0.0
 10
-1.49422
 20
-3.5476
 30
0.0
 10
-1.27416
 20
-3.59207
 30
0.0
 10
-1.1471
 20
-3.90954
 30
0.0
 10
-1.35222
 20
-4.11042
 30
0.0
 10
-1.35222
 20
-4.11042
 30
0.0
 10
-1.39783
 20
-4.17905
 30
0.0
 10
-1.75333
 20
-4.23166
 30
0.0
 10
-1.65367
 20
-3.9268
 30
0.0
 10
-1.65367
 20
-3.9268
 30
0.0
 10
-1.66266
 20
-3.86441
 30
0.0
 10
-1.84459
 20
-3.87853
 30
0.0
 10
-1.78678
 20
-3.64489
 30
0.0
 10
-1.78678
 20
-3.64489
 30
0.0
 10
-1.72743
 20
-3.80688
 30
0.0
 10
-1.64154
 20
-3.80867
 30
0.0
 10
-1.59944
 20
-3.86499
 30
0.0
 10
-1.59944
 20
-3.86499
 30
0.0
 10
-1.53605
 20
-3.95009
 30
0.0
 10
-1.6063
 20
-4.1189
 30
0.0
 10
-1.41819
 20
-4.10171
 30
0.0
 10
-1.41819
 20
-4.10171
 30
0.0
 10
-1.29844
 20
-4.05051
 30
0.0
 10
-1.38856
 20
-3.9217
 30
0.0
 10
-1.44286
 20
-3.89721
 30
0.0
 10
-1.44286
 20
-3.89721
 30
0.0
 10
-1.59472
 20
-3.82923
 30
0.0
 10
-1.63558
 20
-3.64578
 30
0.0
 10
-1.71365
 20
-3.59903
 30
0.0
 10
-1.71365
 20
-3.59903
 30
0.0
 10
-1.43246
 20
-3.60182
 30
0.0
 10
-1.4237
 20
-3.82513
 30
0.0
 10
-1.35918
 20
-3.82985
 30
0.0
 10
-1.35918
 20
-3.82985
 30
0.0
 10
-1.3289
 20
-3.83189
 30
0.0
 10
-1.34743
 20
-3.66856
 30
0.0
 10
-1.44596
 20
-3.61719
 30
0.0
 10
-1.44596
 20
-3.61719
 30
0.0
 10
-1.66059
 20
-3.48724
 30
0.0
 10
-1.79643
 20
-3.51518
 30
0.0
 10
-1.85107
 20
-3.47921
 30
0.0
 10
-1.85107
 20
-3.47921
 30
0.0
 10
-1.96004
 20
-3.43418
 30
0.0
 10
-1.93127
 20
-3.33273
 30
0.0
 10
-1.97747
 20
-3.30548
 30
0.0
 10
-1.97747
 20
-3.30548
 30
0.0
 10
-1.77076
 20
-3.2639
 30
0.0
 10
-1.74958
 20
-3.42182
 30
0.0
 10
-1.63344
 20
-3.38354
 30
0.0
 10
-1.63344
 20
-3.38354
 30
0.0
 10
-1.74665
 20
-3.18269
 30
0.0
 10
-1.92307
 20
-3.24181
 30
0.0
 10
-1.97757
 20
-3.19055
 30
0.0
 10
-1.97757
 20
-3.19055
 30
0.0
 10
-2.02491
 20
-3.15741
 30
0.0
 10
-2.09987
 20
-3.10153
 30
0.0
 10
-2.02705
 20
-2.9713
 30
0.0
 10
-2.02705
 20
-2.9713
 30
0.0
 10
-2.02084
 20
-3.08327
 30
0.0
 10
-1.92362
 20
-3.18803
 30
0.0
 10
-1.72181
 20
-3.19758
 30
0.0
 10
-1.72181
 20
-3.19758
 30
0.0
 10
-1.52003
 20
-3.20702
 30
0.0
 10
-1.4482
 20
-3.24332
 30
0.0
 10
-1.30171
 20
-3.36618
 30
0.0
 10
-1.30171
 20
-3.36618
 30
0.0
 10
-1.24573
 20
-3.24715
 30
0.0
 10
-1.54298
 20
-3.09091
 30
0.0
 10
-1.56054
 20
-2.92
 30
0.0
 10
-1.56054
 20
-2.92
 30
0.0
 10
-1.21903
 20
-2.91549
 30
0.0
 10
-1.23236
 20
-3.3926
 30
0.0
 10
-1.21269
 20
-3.47563
 30
0.0
 10
-1.21269
 20
-3.47563
 30
0.0
 10
-1.19302
 20
-3.55869
 30
0.0
 10
-1.1472
 20
-3.63186
 30
0.0
 10
-1.1472
 20
-3.63186
 30
0.0
 10
-1.1472
 20
-3.63186
 30
0.0
 10
-1.05818
 20
-3.567
 30
0.0
 10
-1.02318
 20
-3.52
 30
0.0
 10
-1.01818
 20
-3.45351
 30
0.0
 10
-1.01818
 20
-3.45351
 30
0.0
 10
-1.01708
 20
-3.38664
 30
0.0
 10
-1.01092
 20
-3.35485
 30
0.0
 10
-1.04047
 20
-3.33183
 30
0.0
 10
-1.04047
 20
-3.33183
 30
0.0
 10
-1.06993
 20
-3.30875
 30
0.0
 10
-1.35198
 20
-2.99366
 30
0.0
 10
-1.21611
 20
-2.70513
 30
0.0
 10
-1.21611
 20
-2.70513
 30
0.0
 10
-1.07723
 20
-2.78482
 30
0.0
 10
-0.97939
 20
-2.81314
 30
0.0
 10
-0.97939
 20
-2.81314
 30
0.0
  0
SPLINE
  5
9E
330
1F
100
AcDbEntity
  8
Layer 1
100
AcDbSpline
210
0.0
220
0.0
230
1.0
 70
    11
 71
     3
 72
    28
 73
    24
 74
     0
 42
0.0000000001
 43
0.0000000001
 40
0.0
 40
0.0
 40
0.0
 40
0.0
 40
0.1666666666666667
 40
0.1666666666666667
 40
0.1666666666666667
 40
0.1666666666666667
 40
0.3333333333333333
 40
0.3333333333333333
 40
0.3333333333333333
 40
0.3333333333333333
 40
0.5
 40
0.5
 40
0.5
 40
0.5
 40
0.6666666666666666
 40
0.6666666666666666
 40
0.6666666666666666
 40
0.6666666666666666
 40
0.8333333333333333
 40
0.8333333333333333
 40
0.8333333333333333
 40
0.8333333333333333
 40
1.0
 40
1.0
 40
1.0
 40
1.0
 10
-0.92582
 20
-4.08727
 30
0.0
 10
-1.10259
 20
-4.19224
 30
0.0
 10
-1.14338
 20
-4.00779
 30
0.0
 10
-1.18982
 20
-3.95367
 30
0.0
 10
-1.18982
 20
-3.95367
 30
0.0
 10
-1.09263
 20
-3.87078
 30
0.0
 10
-0.99355
 20
-4.04865
 30
0.0
 10
-0.94894
 20
-4.00094
 30
0.0
 10
-0.94894
 20
-4.00094
 30
0.0
 10
-0.92689
 20
-3.97896
 30
0.0
 10
-1.03379
 20
-3.82327
 30
0.0
 10
-0.92582
 20
-3.71689
 30
0.0
 10
-0.92582
 20
-3.71689
 30
0.0
 10
-0.81792
 20
-3.82327
 30
0.0
 10
-0.92475
 20
-3.97896
 30
0.0
 10
-0.90267
 20
-4.00094
 30
0.0
 10
-0.90267
 20
-4.00094
 30
0.0
 10
-0.85809
 20
-4.04865
 30
0.0
 10
-0.75901
 20
-3.87078
 30
0.0
 10
-0.66189
 20
-3.95367
 30
0.0
 10
-0.66189
 20
-3.95367
 30
0.0
 10
-0.70837
 20
-4.00779
 30
0.0
 10
-0.74909
 20
-4.19224
 30
0.0
 10
-0.92582
 20
-4.08727
 30
0.0
  0
SPLINE
  5
9F
330
1F
100
AcDbEntity
  8
Layer 1
100
AcDbSpline
210
0.0
220
0.0
230
1.0
 70
    11
 71
     3
 72
    32
 73
    28
 74
     0
 42
0.0000000001
 43
0.0000000001
 40
0.0
 40
0.0
 40
0.0
 40
0.0
 40
0.1428571428571428
 40
0.1428571428571428
 40
0.1428571428571428
 40
0.1428571428571428
 40
0.2857142857142857
 40
0.2857142857142857
 40
0.2857142857142857
 40
0.2857142857142857
 40
0.4285714285714285
 40
0.4285714285714285
 40
0.4285714285714285
 40
0.4285714285714285
 40
0.5714285714285714
 40
0.5714285714285714
 40
0.5714285714285714
 40
0.5714285714285714
 40
0.7142857142857142
 40
0.7142857142857142
 40
0.7142857142857142
 40
0.7142857142857142
 40
0.857142857142857
 40
0.857142857142857
 40
0.857142857142857
 40
0.857142857142857
 40
1.0
 40
1.0
 40
1.0
 40
1.0
 10
-0.92582
 20
-4.44608
 30
0.0
 10
-1.08915
 20
-4.44608
 30
0.0
 10
-1.10934
 20
-4.19996
 30
0.0
 10
-1.37513
 20
-4.39847
 30
0.0
 10
-1.37513
 20
-4.39847
 30
0.0
 10
-1.37496
 20
-4.28157
 30
0.0
 10
-1.32211
 20
-4.20051
 30
0.0
 10
-1.19278
 20
-4.16403
 30
0.0
 10
-1.19278
 20
-4.16403
 30
0.0
 10
-0.99338
 20
-4.11948
 30
0.0
 10
-0.97539
 20
-4.38352
 30
0.0
 10
-0.92582
 20
-4.16641
 30
0.0
 10
-0.92582
 20
-4.16641
 30
0.0
 10
-0.92582
 20
-4.16641
 30
0.0
 10
-0.92582
 20
-4.16372
 30
0.0
 10
-0.92582
 20
-4.16372
 30
0.0
 10
-0.92582
 20
-4.16372
 30
0.0
 10
-0.87631
 20
-4.38083
 30
0.0
 10
-0.85826
 20
-4.11948
 30
0.0
 10
-0.65893
 20
-4.16403
 30
0.0
 10
-0.65893
 20
-4.16403
 30
0.0
 10
-0.5296
 20
-4.20051
 30
0.0
 10
-0.47665
 20
-4.28157
 30
0.0
 10
-0.47655
 20
-4.39847
 30
0.0
 10
-0.47655
 20
-4.39847
 30
0.0
 10
-0.74226
 20
-4.19996
 30
0.0
 10
-0.76125
 20
-4.44608
 30
0.0
 10
-0.92582
 20
-4.44608
 30
0.0
  0
SPLINE
  5
A0
330
1F
100
AcDbEntity
  8
Layer 1
100
AcDbSpline
210
0.0
220
0.0
230
1.0
 70
    11
 71
     3
 72
    12
 73
     8
 74
     0
 42
0.0000000001
 43
0.0000000001
 40
0.0
 40
0.0
 40
0.0
 40
0.0
 40
0.5
 40
0.5
 40
0.5
 40
0.5
 40
1.0
 40
1.0
 40
1.0
 40
1.0
 10
-1.40796
 20
-4.22745
 30
0.0
 10
-1.42505
 20
-4.29808
 30
0.0
 10
-1.56044
 20
-4.42375
 30
0.0
 10
-1.60719
 20
-4.2126
 30
0.0
 10
-1.60719
 20
-4.2126
 30
0.0
 10
-1.48575
 20
-4.26504
 30
0.0
 10
-1.40796
 20
-4.22745
 30
0.0
 10
-1.40796
 20
-4.22745
 30
0.0
  0
SPLINE
  5
A1
330
1F
100
AcDbEntity
  8
Layer 1
100
AcDbSpline
210
0.0
220
0.0
230
1.0
 70
    11
 71
     3
 72
    44
 73
    40
 74
     0
 42
0.0000000001
 43
0.0000000001
 40
0.0
 40
0.0
 40
0.0
 40
0.0
 40
0.1
 40
0.1
 40
0.1
 40
0.1
 40
0.2
 40
0.2
 40
0.2
 40
0.2
 40
0.3
 40
0.3
 40
0.3
 40
0.3
 40
0.4
 40
0.4
 40
0.4
 40
0.4
 40
0.5
 40
0.5
 40
0.5
 40
0.5
 40
0.6
 40
0.6
 40
0.6
 40
0.6
 40
0.7
 40
0.7
 40
0.7
 40
0.7
 40
0.7999999999999999
 40
0.7999999999999999
 40
0.7999999999999999
 40
0.7999999999999999
 40
0.8999999999999999
 40
0.8999999999999999
 40
0.8999999999999999
 40
0.8999999999999999
 40
1.0
 40
1.0
 40
1.0
 40
1.0
 10
-1.67385
 20
-4.15211
 30
0.0
 10
-1.74958
 20
-4.10181
 30
0.0
 10
-1.73304
 20
-3.96218
 30
0.0
 10
-1.71588
 20
-3.93383
 30
0.0
 10
-1.71588
 20
-3.93383
 30
0.0
 10
-1.74727
 20
-3.91047
 30
0.0
 10
-1.77469
 20
-3.90113
 30
0.0
 10
-1.78902
 20
-3.92225
 30
0.0
 10
-1.78902
 20
-3.92225
 30
0.0
 10
-1.84039
 20
-4.02078
 30
0.0
 10
-1.77094
 20
-4.16213
 30
0.0
 10
-1.81441
 20
-4.17174
 30
0.0
 10
-1.81441
 20
-4.17174
 30
0.0
 10
-1.85786
 20
-4.18139
 30
0.0
 10
-1.847
 20
-4.08503
 30
0.0
 10
-1.88972
 20
-4.03156
 30
0.0
 10
-1.88972
 20
-4.03156
 30
0.0
 10
-1.93244
 20
-3.97796
 30
0.0
 10
-1.99146
 20
-3.87436
 30
0.0
 10
-2.06157
 20
-3.86892
 30
0.0
 10
-2.06157
 20
-3.86892
 30
0.0
 10
-2.05771
 20
-3.96907
 30
0.0
 10
-1.94312
 20
-4.11638
 30
0.0
 10
-1.97447
 20
-4.15056
 30
0.0
 10
-1.97447
 20
-4.15056
 30
0.0
 10
-2.03897
 20
-4.11707
 30
0.0
 10
-2.12337
 20
-4.03125
 30
0.0
 10
-2.1367
 20
-3.98729
 30
0.0
 10
-2.1367
 20
-3.98729
 30
0.0
 10
-2.12685
 20
-4.08631
 30
0.0
 10
-1.9868
 20
-4.17195
 30
0.0
 10
-1.93041
 20
-4.25212
 30
0.0
 10
-1.93041
 20
-4.25212
 30
0.0
 10
-1.87394
 20
-4.33242
 30
0.0
 10
-1.85017
 20
-4.32602
 30
0.0
 10
-1.80005
 20
-4.33839
 30
0.0
 10
-1.80005
 20
-4.33839
 30
0.0
 10
-1.81331
 20
-4.2217
 30
0.0
 10
-1.67385
 20
-4.15211
 30
0.0
 10
-1.67385
 20
-4.15211
 30
0.0
  0
SPLINE
  5
A2
330
1F
100
AcDbEntity
  8
Layer 1
100
AcDbSpline
210
0.0
220
0.0
230
1.0
 70
    11
 71
     3
 72
    28
 73
    24
 74
     0
 42
0.0000000001
 43
0.0000000001
 40
0.0
 40
0.0
 40
0.0
 40
0.0
 40
0.1666666666666667
 40
0.1666666666666667
 40
0.1666666666666667
 40
0.1666666666666667
 40
0.3333333333333333
 40
0.3333333333333333
 40
0.3333333333333333
 40
0.3333333333333333
 40
0.5
 40
0.5
 40
0.5
 40
0.5
 40
0.6666666666666666
 40
0.6666666666666666
 40
0.6666666666666666
 40
0.6666666666666666
 40
0.8333333333333333
 40
0.8333333333333333
 40
0.8333333333333333
 40
0.8333333333333333
 40
1.0
 40
1.0
 40
1.0
 40
1.0
 10
-1.7748
 20
-3.55445
 30
0.0
 10
-1.99432
 20
-3.51966
 30
0.0
 10
-1.98112
 20
-3.39119
 30
0.0
 10
-2.04868
 20
-3.35157
 30
0.0
 10
-2.04868
 20
-3.35157
 30
0.0
 10
-2.11627
 20
-3.31195
 30
0.0
 10
-2.16288
 20
-3.37472
 30
0.0
 10
-2.20795
 20
-3.35343
 30
0.0
 10
-2.20795
 20
-3.35343
 30
0.0
 10
-2.16974
 20
-3.4121
 30
0.0
 10
-2.28432
 20
-3.52534
 30
0.0
 10
-2.00141
 20
-3.5589
 30
0.0
 10
-2.00141
 20
-3.5589
 30
0.0
 10
-1.928
 20
-3.56868
 30
0.0
 10
-1.90981
 20
-3.48872
 30
0.0
 10
-1.89213
 20
-3.58684
 30
0.0
 10
-1.89213
 20
-3.58684
 30
0.0
 10
-1.87546
 20
-3.66373
 30
0.0
 10
-1.83639
 20
-3.57116
 30
0.0
 10
-1.82258
 20
-3.58257
 30
0.0
 10
-1.82258
 20
-3.58257
 30
0.0
 10
-1.76935
 20
-3.6145
 30
0.0
 10
-1.7748
 20
-3.55445
 30
0.0
 10
-1.7748
 20
-3.55445
 30
0.0
  0
SPLINE
  5
A3
330
1F
100
AcDbEntity
  8
Layer 1
100
AcDbSpline
210
0.0
220
0.0
230
1.0
 70
    11
 71
     3
 72
    48
 73
    44
 74
     0
 42
0.0000000001
 43
0.0000000001
 40
0.0
 40
0.0
 40
0.0
 40
0.0
 40
0.0909090909090909
 40
0.0909090909090909
 40
0.0909090909090909
 40
0.0909090909090909
 40
0.1818181818181818
 40
0.1818181818181818
 40
0.1818181818181818
 40
0.1818181818181818
 40
0.2727272727272727
 40
0.2727272727272727
 40
0.2727272727272727
 40
0.2727272727272727
 40
0.3636363636363636
 40
0.3636363636363636
 40
0.3636363636363636
 40
0.3636363636363636
 40
0.4545454545454546
 40
0.4545454545454546
 40
0.4545454545454546
 40
0.4545454545454546
 40
0.5454545454545455
 40
0.5454545454545455
 40
0.5454545454545455
 40
0.5454545454545455
 40
0.6363636363636365
 40
0.6363636363636365
 40
0.6363636363636365
 40
0.6363636363636365
 40
0.7272727272727274
 40
0.7272727272727274
 40
0.7272727272727274
 40
0.7272727272727274
 40
0.8181818181818183
 40
0.8181818181818183
 40
0.8181818181818183
 40
0.8181818181818183
 40
0.9090909090909093
 40
0.9090909090909093
 40
0.9090909090909093
 40
0.9090909090909093
 40
1.0
 40
1.0
 40
1.0
 40
1.0
 10
-1.91425
 20
-3.68154
 30
0.0
 10
-1.9682
 20
-3.57822
 30
0.0
 10
-2.58498
 20
-3.38013
 30
0.0
 10
-2.60492
 20
-3.92153
 30
0.0
 10
-2.60492
 20
-3.92153
 30
0.0
 10
-2.63404
 20
-3.83723
 30
0.0
 10
-2.60634
 20
-3.70104
 30
0.0
 10
-2.56017
 20
-3.65539
 30
0.0
 10
-2.56017
 20
-3.65539
 30
0.0
 10
-2.51387
 20
-3.60982
 30
0.0
 10
-2.81077
 20
-3.65288
 30
0.0
 10
-2.83103
 20
-3.82069
 30
0.0
 10
-2.83103
 20
-3.82069
 30
0.0
 10
-2.85132
 20
-3.98847
 30
0.0
 10
-2.79926
 20
-3.98578
 30
0.0
 10
-2.8467
 20
-4.12699
 30
0.0
 10
-2.8467
 20
-4.12699
 30
0.0
 10
-2.73604
 20
-4.04393
 30
0.0
 10
-2.74896
 20
-3.86599
 30
0.0
 10
-2.65347
 20
-3.8538
 30
0.0
 10
-2.65347
 20
-3.8538
 30
0.0
 10
-2.68399
 20
-3.96852
 30
0.0
 10
-2.75083
 20
-4.28533
 30
0.0
 10
-2.3946
 20
-4.24244
 30
0.0
 10
-2.3946
 20
-4.24244
 30
0.0
 10
-2.47411
 20
-4.16296
 30
0.0
 10
-2.39157
 20
-3.98802
 30
0.0
 10
-2.4797
 20
-3.90169
 30
0.0
 10
-2.4797
 20
-3.90169
 30
0.0
 10
-2.51408
 20
-3.8569
 30
0.0
 10
-2.47036
 20
-3.74397
 30
0.0
 10
-2.41772
 20
-3.76622
 30
0.0
 10
-2.41772
 20
-3.76622
 30
0.0
 10
-2.36515
 20
-3.78844
 30
0.0
 10
-2.40022
 20
-3.85094
 30
0.0
 10
-2.39202
 20
-3.89028
 30
0.0
 10
-2.39202
 20
-3.89028
 30
0.0
 10
-2.36825
 20
-3.98544
 30
0.0
 10
-2.25883
 20
-4.0133
 30
0.0
 10
-2.26686
 20
-3.91457
 30
0.0
 10
-2.26686
 20
-3.91457
 30
0.0
 10
-2.26713
 20
-3.81487
 30
0.0
 10
-2.27568
 20
-3.63369
 30
0.0
 10
-1.91425
 20
-3.68154
 30
0.0
  0
SPLINE
  5
A4
330
1F
100
AcDbEntity
  8
Layer 1
100
AcDbSpline
210
0.0
220
0.0
230
1.0
 70
    11
 71
     3
 72
    20
 73
    16
 74
     0
 42
0.0000000001
 43
0.0000000001
 40
0.0
 40
0.0
 40
0.0
 40
0.0
 40
0.25
 40
0.25
 40
0.25
 40
0.25
 40
0.5
 40
0.5
 40
0.5
 40
0.5
 40
0.75
 40
0.75
 40
0.75
 40
0.75
 40
1.0
 40
1.0
 40
1.0
 40
1.0
 10
-2.20981
 20
-3.87419
 30
0.0
 10
-2.21257
 20
-3.9145
 30
0.0
 10
-2.153
 20
-3.86448
 30
0.0
 10
-2.13298
 20
-3.93035
 30
0.0
 10
-2.13298
 20
-3.93035
 30
0.0
 10
-2.1377
 20
-3.83582
 30
0.0
 10
-2.09471
 20
-3.68451
 30
0.0
 10
-1.87722
 20
-3.93738
 30
0.0
 10
-1.87722
 20
-3.93738
 30
0.0
 10
-1.83584
 20
-3.91412
 30
0.0
 10
-1.81751
 20
-3.89162
 30
0.0
 10
-1.81751
 20
-3.89162
 30
0.0
 10
-1.81751
 20
-3.89162
 30
0.0
 10
-1.84376
 20
-3.84415
 30
0.0
 10
-2.18817
 20
-3.55142
 30
0.0
 10
-2.20981
 20
-3.87419
 30
0.0
  0
SPLINE
  5
A5
330
1F
100
AcDbEntity
  8
Layer 1
100
AcDbSpline
210
0.0
220
0.0
230
1.0
 70
    11
 71
     3
 72
    12
 73
     8
 74
     0
 42
0.0000000001
 43
0.0000000001
 40
0.0
 40
0.0
 40
0.0
 40
0.0
 40
0.5
 40
0.5
 40
0.5
 40
0.5
 40
1.0
 40
1.0
 40
1.0
 40
1.0
 10
-1.54621
 20
-3.14414
 30
0.0
 10
-1.69618
 20
-2.97489
 30
0.0
 10
-1.83757
 20
-3.1171
 30
0.0
 10
-1.93554
 20
-2.98918
 30
0.0
 10
-1.93554
 20
-2.98918
 30
0.0
 10
-1.81589
 20
-3.18504
 30
0.0
 10
-1.66235
 20
-3.12495
 30
0.0
 10
-1.54621
 20
-3.14414
 30
0.0
  0
SPLINE
  5
A6
330
1F
100
AcDbEntity
  8
Layer 1
100
AcDbSpline
210
0.0
220
0.0
230
1.0
 70
    11
 71
     3
 72
   136
 73
   132
 74
     0
 42
0.0000000001
 43
0.0000000001
 40
0.0
 40
0.0
 40
0.0
 40
0.0
 40
0.0303030303030303
 40
0.0303030303030303
 40
0.0303030303030303
 40
0.0303030303030303
 40
0.0606060606060606
 40
0.0606060606060606
 40
0.0606060606060606
 40
0.0606060606060606
 40
0.0909090909090909
 40
0.0909090909090909
 40
0.0909090909090909
 40
0.0909090909090909
 40
0.1212121212121212
 40
0.1212121212121212
 40
0.1212121212121212
 40
0.1212121212121212
 40
0.1515151515151515
 40
0.1515151515151515
 40
0.1515151515151515
 40
0.1515151515151515
 40
0.1818181818181818
 40
0.1818181818181818
 40
0.1818181818181818
 40
0.1818181818181818
 40
0.2121212121212121
 40
0.2121212121212121
 40
0.2121212121212121
 40
0.2121212121212121
 40
0.2424242424242424
 40
0.2424242424242424
 40
0.2424242424242424
 40
0.2424242424242424
 40
0.2727272727272727
 40
0.2727272727272727
 40
0.2727272727272727
 40
0.2727272727272727
 40
0.303030303030303
 40
0.303030303030303
 40
0.303030303030303
 40
0.303030303030303
 40
0.3333333333333333
 40
0.3333333333333333
 40
0.3333333333333333
 40
0.3333333333333333
 40
0.3636363636363635
 40
0.3636363636363635
 40
0.3636363636363635
 40
0.3636363636363635
 40
0.3939393939393938
 40
0.3939393939393938
 40
0.3939393939393938
 40
0.3939393939393938
 40
0.4242424242424241
 40
0.4242424242424241
 40
0.4242424242424241
 40
0.4242424242424241
 40
0.4545454545454544
 40
0.4545454545454544
 40
0.4545454545454544
 40
0.4545454545454544
 40
0.4848484848484846
 40
0.4848484848484846
 40
0.4848484848484846
 40
0.4848484848484846
 40
0.5151515151515149
 40
0.5151515151515149
 40
0.5151515151515149
 40
0.5151515151515149
 40
0.5454545454545452
 40
0.5454545454545452
 40
0.5454545454545452
 40
0.5454545454545452
 40
0.5757575757575755
 40
0.5757575757575755
 40
0.5757575757575755
 40
0.5757575757575755
 40
0.6060606060606057
 40
0.6060606060606057
 40
0.6060606060606057
 40
0.6060606060606057
 40
0.636363636363636
 40
0.636363636363636
 40
0.636363636363636
 40
0.636363636363636
 40
0.6666666666666663
 40
0.6666666666666663
 40
0.6666666666666663
 40
0.6666666666666663
 40
0.6969696969696966
 40
0.6969696969696966
 40
0.6969696969696966
 40
0.6969696969696966
 40
0.7272727272727268
 40
0.7272727272727268
 40
0.7272727272727268
 40
0.7272727272727268
 40
0.7575757575757571
 40
0.7575757575757571
 40
0.7575757575757571
 40
0.7575757575757571
 40
0.7878787878787874
 40
0.7878787878787874
 40
0.7878787878787874
 40
0.7878787878787874
 40
0.8181818181818177
 40
0.8181818181818177
 40
0.8181818181818177
 40
0.8181818181818177
 40
0.848484848484848
 40
0.848484848484848
 40
0.848484848484848
 40
0.848484848484848
 40
0.8787878787878782
 40
0.8787878787878782
 40
0.8787878787878782
 40
0.8787878787878782
 40
0.9090909090909085
 40
0.9090909090909085
 40
0.9090909090909085
 40
0.9090909090909085
 40
0.9393939393939388
 40
0.9393939393939388
 40
0.9393939393939388
 40
0.9393939393939388
 40
0.9696969696969691
 40
0.9696969696969691
 40
0.9696969696969691
 40
0.9696969696969691
 40
1.0
 40
1.0
 40
1.0
 40
1.0
 10
-0.22113
 20
-4.76502
 30
0.0
 10
-0.30508
 20
-4.62281
 30
0.0
 10
-0.00205
 20
-4.51002
 30
0.0
 10
-0.17903
 20
-4.27289
 30
0.0
 10
-0.17903
 20
-4.27289
 30
0.0
 10
-0.17903
 20
-4.33036
 30
0.0
 10
-0.46783
 20
-4.52187
 30
0.0
 10
-0.38122
 20
-4.71342
 30
0.0
 10
-0.38122
 20
-4.71342
 30
0.0
 10
-0.23487
 20
-4.95072
 30
0.0
 10
-0.3065
 20
-5.07515
 30
0.0
 10
-0.41495
 20
-5.06651
 30
0.0
 10
-0.41495
 20
-5.06651
 30
0.0
 10
-0.52336
 20
-5.05789
 30
0.0
 10
-0.30374
 20
-4.48852
 30
0.0
 10
-0.71047
 20
-4.45438
 30
0.0
 10
-0.71047
 20
-4.45438
 30
0.0
 10
-0.6827
 20
-4.51963
 30
0.0
 10
-0.73923
 20
-4.58461
 30
0.0
 10
-0.65121
 20
-4.69933
 30
0.0
 10
-0.65121
 20
-4.69933
 30
0.0
 10
-0.56326
 20
-4.81415
 30
0.0
 10
-0.49587
 20
-4.94689
 30
0.0
 10
-0.56164
 20
-4.97101
 30
0.0
 10
-0.56164
 20
-4.97101
 30
0.0
 10
-0.62744
 20
-4.99502
 30
0.0
 10
-0.61169
 20
-4.76699
 30
0.0
 10
-0.77861
 20
-4.75069
 30
0.0
 10
-0.77861
 20
-4.75069
 30
0.0
 10
-0.77785
 20
-4.84254
 30
0.0
 10
-0.66224
 20
-4.93452
 30
0.0
 10
-0.62468
 20
-5.04446
 30
0.0
 10
-0.62468
 20
-5.04446
 30
0.0
 10
-0.5872
 20
-5.1545
 30
0.0
 10
-0.59681
 20
-5.31273
 30
0.0
 10
-0.73059
 20
-5.31514
 30
0.0
 10
-0.73059
 20
-5.31514
 30
0.0
 10
-0.82498
 20
-5.29705
 30
0.0
 10
-0.7987
 20
-5.14788
 30
0.0
 10
-0.74616
 20
-5.0529
 30
0.0
 10
-0.74616
 20
-5.0529
 30
0.0
 10
-0.69369
 20
-4.95781
 30
0.0
 10
-0.74709
 20
-4.93042
 30
0.0
 10
-0.76886
 20
-4.91031
 30
0.0
 10
-0.76886
 20
-4.91031
 30
0.0
 10
-0.76869
 20
-4.99843
 30
0.0
 10
-0.86563
 20
-5.01889
 30
0.0
 10
-0.86563
 20
-5.01889
 30
0.0
 10
-0.86563
 20
-5.01889
 30
0.0
 10
-0.77458
 20
-4.83827
 30
0.0
 10
-0.91631
 20
-4.72293
 30
0.0
 10
-0.92448
 20
-4.63215
 30
0.0
 10
-0.92448
 20
-4.63215
 30
0.0
 10
-0.92448
 20
-4.63215
 30
0.0
 10
-0.92716
 20
-4.63215
 30
0.0
 10
-0.92716
 20
-4.63215
 30
0.0
 10
-0.92716
 20
-4.63215
 30
0.0
 10
-0.93543
 20
-4.72293
 30
0.0
 10
-1.07706
 20
-4.83827
 30
0.0
 10
-0.98607
 20
-5.01889
 30
0.0
 10
-0.98607
 20
-5.01889
 30
0.0
 10
-0.98607
 20
-5.01889
 30
0.0
 10
-1.08292
 20
-4.99843
 30
0.0
 10
-1.08274
 20
-4.91031
 30
0.0
 10
-1.08274
 20
-4.91031
 30
0.0
 10
-1.10459
 20
-4.93042
 30
0.0
 10
-1.15805
 20
-4.95781
 30
0.0
 10
-1.10545
 20
-5.0529
 30
0.0
 10
-1.10545
 20
-5.0529
 30
0.0
 10
-1.05295
 20
-5.14788
 30
0.0
 10
-1.02666
 20
-5.29705
 30
0.0
 10
-1.12102
 20
-5.31514
 30
0.0
 10
-1.12102
 20
-5.31514
 30
0.0
 10
-1.25483
 20
-5.31273
 30
0.0
 10
-1.26451
 20
-5.1545
 30
0.0
 10
-1.22696
 20
-5.04446
 30
0.0
 10
-1.22696
 20
-5.04446
 30
0.0
 10
-1.1894
 20
-4.93452
 30
0.0
 10
-1.07375
 20
-4.84254
 30
0.0
 10
-1.07313
 20
-4.75069
 30
0.0
 10
-1.07313
 20
-4.75069
 30
0.0
 10
-1.24005
 20
-4.76699
 30
0.0
 10
-1.22427
 20
-4.99502
 30
0.0
 10
-1.29007
 20
-4.97101
 30
0.0
 10
-1.29007
 20
-4.97101
 30
0.0
 10
-1.3558
 20
-4.94689
 30
0.0
 10
-1.28835
 20
-4.81415
 30
0.0
 10
-1.20043
 20
-4.69933
 30
0.0
 10
-1.20043
 20
-4.69933
 30
0.0
 10
-1.11251
 20
-4.58461
 30
0.0
 10
-1.16901
 20
-4.51963
 30
0.0
 10
-1.14114
 20
-4.45438
 30
0.0
 10
-1.14114
 20
-4.45438
 30
0.0
 10
-1.54797
 20
-4.48852
 30
0.0
 10
-1.32831
 20
-5.05789
 30
0.0
 10
-1.43669
 20
-5.06651
 30
0.0
 10
-1.43669
 20
-5.06651
 30
0.0
 10
-1.54514
 20
-5.07515
 30
0.0
 10
-1.6168
 20
-4.95072
 30
0.0
 10
-1.47045
 20
-4.71342
 30
0.0
 10
-1.47045
 20
-4.71342
 30
0.0
 10
-1.38374
 20
-4.52187
 30
0.0
 10
-1.67261
 20
-4.33036
 30
0.0
 10
-1.67261
 20
-4.27289
 30
0.0
 10
-1.67261
 20
-4.27289
 30
0.0
 10
-1.84959
 20
-4.51002
 30
0.0
 10
-1.54656
 20
-4.62281
 30
0.0
 10
-1.63048
 20
-4.76502
 30
0.0
 10
-1.63048
 20
-4.76502
 30
0.0
 10
-1.71606
 20
-4.60045
 30
0.0
 10
-1.99583
 20
-4.39867
 30
0.0
 10
-2.03486
 20
-4.72293
 30
0.0
 10
-2.03486
 20
-4.72293
 30
0.0
 10
-1.68595
 20
-4.8075
 30
0.0
 10
-1.75643
 20
-5.10843
 30
0.0
 10
-1.47783
 20
-5.34835
 30
0.0
 10
-1.47783
 20
-5.34835
 30
0.0
 10
-1.19936
 20
-5.58833
 30
0.0
 10
-0.98663
 20
-5.36909
 30
0.0
 10
-0.92582
 20
-5.36909
 30
0.0
 10
-0.92582
 20
-5.36909
 30
0.0
 10
-0.87142
 20
-5.36909
 30
0.0
 10
-0.65238
 20
-5.58833
 30
0.0
 10
-0.37374
 20
-5.34835
 30
0.0
 10
-0.37374
 20
-5.34835
 30
0.0
 10
-0.09517
 20
-5.10843
 30
0.0
 10
-0.16566
 20
-4.8075
 30
0.0
 10
0.18319
 20
-4.72293
 30
0.0
 10
0.18319
 20
-4.72293
 30
0.0
 10
0.14409
 20
-4.39867
 30
0.0
 10
-0.13569
 20
-4.60045
 30
0.0
 10
-0.22113
 20
-4.76502
 30
0.0
  0
SPLINE
  5
A7
330
1F
100
AcDbEntity
  8
Layer 1
100
AcDbSpline
210
0.0
220
0.0
230
1.0
 70
    11
 71
     3
 72
    72
 73
    68
 74
     0
 42
0.0000000001
 43
0.0000000001
 40
0.0
 40
0.0
 40
0.0
 40
0.0
 40
0.0588235294117647
 40
0.0588235294117647
 40
0.0588235294117647
 40
0.0588235294117647
 40
0.1176470588235294
 40
0.1176470588235294
 40
0.1176470588235294
 40
0.1176470588235294
 40
0.1764705882352941
 40
0.1764705882352941
 40
0.1764705882352941
 40
0.1764705882352941
 40
0.2352941176470588
 40
0.2352941176470588
 40
0.2352941176470588
 40
0.2352941176470588
 40
0.2941176470588235
 40
0.2941176470588235
 40
0.2941176470588235
 40
0.2941176470588235
 40
0.3529411764705883
 40
0.3529411764705883
 40
0.3529411764705883
 40
0.3529411764705883
 40
0.411764705882353
 40
0.411764705882353
 40
0.411764705882353
 40
0.411764705882353
 40
0.4705882352941177
 40
0.4705882352941177
 40
0.4705882352941177
 40
0.4705882352941177
 40
0.5294117647058824
 40
0.5294117647058824
 40
0.5294117647058824
 40
0.5294117647058824
 40
0.5882352941176471
 40
0.5882352941176471
 40
0.5882352941176471
 40
0.5882352941176471
 40
0.6470588235294118
 40
0.6470588235294118
 40
0.6470588235294118
 40
0.6470588235294118
 40
0.7058823529411765
 40
0.7058823529411765
 40
0.7058823529411765
 40
0.7058823529411765
 40
0.7647058823529412
 40
0.7647058823529412
 40
0.7647058823529412
 40
0.7647058823529412
 40
0.823529411764706
 40
0.823529411764706
 40
0.823529411764706
 40
0.823529411764706
 40
0.8823529411764707
 40
0.8823529411764707
 40
0.8823529411764707
 40
0.8823529411764707
 40
0.9411764705882354
 40
0.9411764705882354
 40
0.9411764705882354
 40
0.9411764705882354
 40
1.0
 40
1.0
 40
1.0
 40
1.0
 10
-1.34006
 20
-5.05228
 30
0.0
 10
-1.34006
 20
-5.05228
 30
0.0
 10
-1.34006
 20
-5.05228
 30
0.0
 10
-1.34006
 20
-5.05228
 30
0.0
 10
-1.34006
 20
-5.05228
 30
0.0
 10
-1.34004
 20
-5.04618
 30
0.0
 10
-1.34004
 20
-5.04067
 30
0.0
 10
-1.34013
 20
-5.03588
 30
0.0
 10
-1.34013
 20
-5.03588
 30
0.0
 10
-1.34004
 20
-5.0407
 30
0.0
 10
-1.34004
 20
-5.04621
 30
0.0
 10
-1.34006
 20
-5.05228
 30
0.0
 10
-1.34006
 20
-5.05228
 30
0.0
 10
-1.34011
 20
-5.0643
 30
0.0
 10
-1.34027
 20
-5.07874
 30
0.0
 10
-1.34018
 20
-5.09469
 30
0.0
 10
-1.34018
 20
-5.09469
 30
0.0
 10
-1.33954
 20
-5.19821
 30
0.0
 10
-1.32755
 20
-5.36478
 30
0.0
 10
-1.1975
 20
-5.36954
 30
0.0
 10
-1.1975
 20
-5.36954
 30
0.0
 10
-1.03734
 20
-5.37539
 30
0.0
 10
-0.92582
 20
-5.1042
 30
0.0
 10
-0.92582
 20
-5.1042
 30
0.0
 10
-0.92582
 20
-5.1042
 30
0.0
 10
-0.92582
 20
-5.1042
 30
0.0
 10
-0.8143
 20
-5.37539
 30
0.0
 10
-0.65414
 20
-5.36954
 30
0.0
 10
-0.65414
 20
-5.36954
 30
0.0
 10
-0.52405
 20
-5.36478
 30
0.0
 10
-0.51208
 20
-5.19825
 30
0.0
 10
-0.51148
 20
-5.09476
 30
0.0
 10
-0.51148
 20
-5.09476
 30
0.0
 10
-0.51139
 20
-5.07877
 30
0.0
 10
-0.51155
 20
-5.0643
 30
0.0
 10
-0.5116
 20
-5.05228
 30
0.0
 10
-0.5116
 20
-5.05228
 30
0.0
 10
-0.51163
 20
-5.04621
 30
0.0
 10
-0.51163
 20
-5.0407
 30
0.0
 10
-0.51155
 20
-5.03588
 30
0.0
 10
-0.51155
 20
-5.03588
 30
0.0
 10
-0.51163
 20
-5.04067
 30
0.0
 10
-0.51163
 20
-5.04618
 30
0.0
 10
-0.5116
 20
-5.05228
 30
0.0
 10
-0.5116
 20
-5.05228
 30
0.0
 10
-0.51155
 20
-5.0644
 30
0.0
 10
-0.51138
 20
-5.07884
 30
0.0
 10
-0.51148
 20
-5.09476
 30
0.0
 10
-0.51148
 20
-5.09476
 30
0.0
 10
-0.512
 20
-5.20162
 30
0.0
 10
-0.5235
 20
-5.37897
 30
0.0
 10
-0.65414
 20
-5.38377
 30
0.0
 10
-0.65414
 20
-5.38377
 30
0.0
 10
-0.8143
 20
-5.38966
 30
0.0
 10
-0.92582
 20
-5.164
 30
0.0
 10
-0.92582
 20
-5.164
 30
0.0
 10
-0.92582
 20
-5.164
 30
0.0
 10
-0.92582
 20
-5.164
 30
0.0
 10
-1.03734
 20
-5.38966
 30
0.0
 10
-1.1975
 20
-5.38377
 30
0.0
 10
-1.1975
 20
-5.38377
 30
0.0
 10
-1.32811
 20
-5.37894
 30
0.0
 10
-1.33963
 20
-5.20159
 30
0.0
 10
-1.34018
 20
-5.09469
 30
0.0
 10
-1.34018
 20
-5.09469
 30
0.0
 10
-1.34028
 20
-5.0788
 30
0.0
 10
-1.34011
 20
-5.0644
 30
0.0
 10
-1.34006
 20
-5.05228
 30
0.0
  0
SPLINE
  5
A8
330
1F
100
AcDbEntity
  8
Layer 1
100
AcDbSpline
210
0.0
220
0.0
230
1.0
 70
    11
 71
     3
 72
    40
 73
    36
 74
     0
 42
0.0000000001
 43
0.0000000001
 40
0.0
 40
0.0
 40
0.0
 40
0.0
 40
0.1111111111111111
 40
0.1111111111111111
 40
0.1111111111111111
 40
0.1111111111111111
 40
0.2222222222222222
 40
0.2222222222222222
 40
0.2222222222222222
 40
0.2222222222222222
 40
0.3333333333333333
 40
0.3333333333333333
 40
0.3333333333333333
 40
0.3333333333333333
 40
0.4444444444444444
 40
0.4444444444444444
 40
0.4444444444444444
 40
0.4444444444444444
 40
0.5555555555555556
 40
0.5555555555555556
 40
0.5555555555555556
 40
0.5555555555555556
 40
0.6666666666666667
 40
0.6666666666666667
 40
0.6666666666666667
 40
0.6666666666666667
 40
0.7777777777777779
 40
0.7777777777777779
 40
0.7777777777777779
 40
0.7777777777777779
 40
0.8888888888888891
 40
0.8888888888888891
 40
0.8888888888888891
 40
0.8888888888888891
 40
1.0
 40
1.0
 40
1.0
 40
1.0
 10
-0.49749
 20
-5.38855
 30
0.0
 10
-0.49749
 20
-5.38855
 30
0.0
 10
-0.49749
 20
-5.38855
 30
0.0
 10
-0.49749
 20
-5.38855
 30
0.0
 10
-0.49749
 20
-5.38855
 30
0.0
 10
-0.65648
 20
-5.49005
 30
0.0
 10
-0.83253
 20
-5.39444
 30
0.0
 10
-0.92582
 20
-5.32633
 30
0.0
 10
-0.92582
 20
-5.32633
 30
0.0
 10
-1.01918
 20
-5.39444
 30
0.0
 10
-1.19516
 20
-5.49005
 30
0.0
 10
-1.35412
 20
-5.38855
 30
0.0
 10
-1.35412
 20
-5.38855
 30
0.0
 10
-1.65401
 20
-5.165
 30
0.0
 10
-1.60826
 20
-4.75117
 30
0.0
 10
-1.88328
 20
-4.68785
 30
0.0
 10
-1.88328
 20
-4.68785
 30
0.0
 10
-1.60826
 20
-4.75117
 30
0.0
 10
-1.65401
 20
-5.14505
 30
0.0
 10
-1.35412
 20
-5.36864
 30
0.0
 10
-1.35412
 20
-5.36864
 30
0.0
 10
-1.19516
 20
-5.47013
 30
0.0
 10
-1.01918
 20
-5.37453
 30
0.0
 10
-0.92582
 20
-5.30642
 30
0.0
 10
-0.92582
 20
-5.30642
 30
0.0
 10
-0.83253
 20
-5.37453
 30
0.0
 10
-0.65648
 20
-5.47013
 30
0.0
 10
-0.49749
 20
-5.36864
 30
0.0
 10
-0.49749
 20
-5.36864
 30
0.0
 10
-0.19763
 20
-5.14505
 30
0.0
 10
-0.24348
 20
-4.75117
 30
0.0
 10
0.03168
 20
-4.68785
 30
0.0
 10
0.03168
 20
-4.68785
 30
0.0
 10
-0.24348
 20
-4.75117
 30
0.0
 10
-0.19763
 20
-5.165
 30
0.0
 10
-0.49749
 20
-5.38855
 30
0.0
  0
SPLINE
  5
A9
330
1F
100
AcDbEntity
  8
Layer 1
100
AcDbSpline
210
0.0
220
0.0
230
1.0
 70
    11
 71
     3
 72
    56
 73
    52
 74
     0
 42
0.0000000001
 43
0.0000000001
 40
0.0
 40
0.0
 40
0.0
 40
0.0
 40
0.0769230769230769
 40
0.0769230769230769
 40
0.0769230769230769
 40
0.0769230769230769
 40
0.1538461538461539
 40
0.1538461538461539
 40
0.1538461538461539
 40
0.1538461538461539
 40
0.2307692307692308
 40
0.2307692307692308
 40
0.2307692307692308
 40
0.2307692307692308
 40
0.3076923076923077
 40
0.3076923076923077
 40
0.3076923076923077
 40
0.3076923076923077
 40
0.3846153846153846
 40
0.3846153846153846
 40
0.3846153846153846
 40
0.3846153846153846
 40
0.4615384615384616
 40
0.4615384615384616
 40
0.4615384615384616
 40
0.4615384615384616
 40
0.5384615384615385
 40
0.5384615384615385
 40
0.5384615384615385
 40
0.5384615384615385
 40
0.6153846153846154
 40
0.6153846153846154
 40
0.6153846153846154
 40
0.6153846153846154
 40
0.6923076923076923
 40
0.6923076923076923
 40
0.6923076923076923
 40
0.6923076923076923
 40
0.7692307692307692
 40
0.7692307692307692
 40
0.7692307692307692
 40
0.7692307692307692
 40
0.846153846153846
 40
0.846153846153846
 40
0.846153846153846
 40
0.846153846153846
 40
0.9230769230769229
 40
0.9230769230769229
 40
0.9230769230769229
 40
0.9230769230769229
 40
1.0
 40
1.0
 40
1.0
 40
1.0
 10
-1.81224
 20
-4.48811
 30
0.0
 10
-1.89558
 20
-4.48091
 30
0.0
 10
-2.09657
 20
-4.46575
 30
0.0
 10
-2.10635
 20
-4.71349
 30
0.0
 10
-2.10635
 20
-4.71349
 30
0.0
 10
-2.22335
 20
-4.78614
 30
0.0
 10
-2.2917
 20
-4.66594
 30
0.0
 10
-2.17133
 20
-4.50947
 30
0.0
 10
-2.17133
 20
-4.50947
 30
0.0
 10
-2.12044
 20
-4.44343
 30
0.0
 10
-2.17542
 20
-4.42465
 30
0.0
 10
-2.26248
 20
-4.4744
 30
0.0
 10
-2.26248
 20
-4.4744
 30
0.0
 10
-2.34957
 20
-4.52425
 30
0.0
 10
-2.21442
 20
-4.86393
 30
0.0
 10
-2.2877
 20
-4.89632
 30
0.0
 10
-2.2877
 20
-4.89632
 30
0.0
 10
-2.48431
 20
-4.99292
 30
0.0
 10
-2.36601
 20
-4.59101
 30
0.0
 10
-2.40091
 20
-4.59404
 30
0.0
 10
-2.40091
 20
-4.59404
 30
0.0
 10
-2.43581
 20
-4.59704
 30
0.0
 10
-2.52476
 20
-4.77688
 30
0.0
 10
-2.46209
 20
-4.91165
 30
0.0
 10
-2.46209
 20
-4.91165
 30
0.0
 10
-2.39949
 20
-5.04632
 30
0.0
 10
-2.34317
 20
-4.93886
 30
0.0
 10
-2.23365
 20
-4.98017
 30
0.0
 10
-2.23365
 20
-4.98017
 30
0.0
 10
-2.1242
 20
-5.02148
 30
0.0
 10
-2.13477
 20
-5.04305
 30
0.0
 10
-2.05864
 20
-5.01862
 30
0.0
 10
-2.05864
 20
-5.01862
 30
0.0
 10
-1.98264
 20
-4.99426
 30
0.0
 10
-1.97399
 20
-4.89962
 30
0.0
 10
-2.0071
 20
-4.86073
 30
0.0
 10
-2.0071
 20
-4.86073
 30
0.0
 10
-1.91418
 20
-4.91127
 30
0.0
 10
-1.91935
 20
-5.09458
 30
0.0
 10
-2.04406
 20
-5.13934
 30
0.0
 10
-2.04406
 20
-5.13934
 30
0.0
 10
-2.16867
 20
-5.18412
 30
0.0
 10
-2.269
 20
-5.24748
 30
0.0
 10
-2.35543
 20
-5.14788
 30
0.0
 10
-2.35543
 20
-5.14788
 30
0.0
 10
-2.64661
 20
-4.94465
 30
0.0
 10
-2.61991
 20
-4.3965
 30
0.0
 10
-2.12658
 20
-4.37373
 30
0.0
 10
-2.12658
 20
-4.37373
 30
0.0
 10
-1.98849
 20
-4.37283
 30
0.0
 10
-1.88855
 20
-4.4282
 30
0.0
 10
-1.81224
 20
-4.48811
 30
0.0
  0
SPLINE
  5
AA
330
1F
100
AcDbEntity
  8
Layer 1
100
AcDbSpline
210
0.0
220
0.0
230
1.0
 70
    11
 71
     3
 72
    28
 73
    24
 74
     0
 42
0.0000000001
 43
0.0000000001
 40
0.0
 40
0.0
 40
0.0
 40
0.0
 40
0.1666666666666667
 40
0.1666666666666667
 40
0.1666666666666667
 40
0.1666666666666667
 40
0.3333333333333333
 40
0.3333333333333333
 40
0.3333333333333333
 40
0.3333333333333333
 40
0.5
 40
0.5
 40
0.5
 40
0.5
 40
0.6666666666666666
 40
0.6666666666666666
 40
0.6666666666666666
 40
0.6666666666666666
 40
0.8333333333333333
 40
0.8333333333333333
 40
0.8333333333333333
 40
0.8333333333333333
 40
1.0
 40
1.0
 40
1.0
 40
1.0
 10
-0.92582
 20
-6.38884
 30
0.0
 10
-0.97522
 20
-6.38884
 30
0.0
 10
-0.97753
 20
-6.31931
 30
0.0
 10
-0.9828
 20
-6.27267
 30
0.0
 10
-0.9828
 20
-6.27267
 30
0.0
 10
-1.01064
 20
-6.01997
 30
0.0
 10
-1.1399
 20
-5.98363
 30
0.0
 10
-1.14737
 20
-5.83714
 30
0.0
 10
-1.14737
 20
-5.83714
 30
0.0
 10
-1.14396
 20
-5.63829
 30
0.0
 10
-0.93375
 20
-5.61252
 30
0.0
 10
-0.92582
 20
-5.43737
 30
0.0
 10
-0.92582
 20
-5.43737
 30
0.0
 10
-0.918
 20
-5.61252
 30
0.0
 10
-0.70764
 20
-5.63829
 30
0.0
 10
-0.70437
 20
-5.83714
 30
0.0
 10
-0.70437
 20
-5.83714
 30
0.0
 10
-0.71174
 20
-5.98363
 30
0.0
 10
-0.84107
 20
-6.01997
 30
0.0
 10
-0.86884
 20
-6.27267
 30
0.0
 10
-0.86884
 20
-6.27267
 30
0.0
 10
-0.87418
 20
-6.31931
 30
0.0
 10
-0.87638
 20
-6.38884
 30
0.0
 10
-0.92582
 20
-6.38884
 30
0.0
  0
SPLINE
  5
AB
330
1F
100
AcDbEntity
  8
Layer 1
100
AcDbSpline
210
0.0
220
0.0
230
1.0
 70
    11
 71
     3
 72
    44
 73
    40
 74
     0
 42
0.0000000001
 43
0.0000000001
 40
0.0
 40
0.0
 40
0.0
 40
0.0
 40
0.1
 40
0.1
 40
0.1
 40
0.1
 40
0.2
 40
0.2
 40
0.2
 40
0.2
 40
0.3
 40
0.3
 40
0.3
 40
0.3
 40
0.4
 40
0.4
 40
0.4
 40
0.4
 40
0.5
 40
0.5
 40
0.5
 40
0.5
 40
0.6
 40
0.6
 40
0.6
 40
0.6
 40
0.7
 40
0.7
 40
0.7
 40
0.7
 40
0.7999999999999999
 40
0.7999999999999999
 40
0.7999999999999999
 40
0.7999999999999999
 40
0.8999999999999999
 40
0.8999999999999999
 40
0.8999999999999999
 40
0.8999999999999999
 40
1.0
 40
1.0
 40
1.0
 40
1.0
 10
-4.75053
 20
-0.94229
 30
0.0
 10
-4.67099
 20
-1.07923
 30
0.0
 10
-4.76772
 20
-1.46295
 30
0.0
 10
-4.61452
 20
-1.47748
 30
0.0
 10
-4.61452
 20
-1.47748
 30
0.0
 10
-4.46124
 20
-1.49206
 30
0.0
 10
-4.5627
 20
-1.34643
 30
0.0
 10
-4.55337
 20
-1.23274
 30
0.0
 10
-4.55337
 20
-1.23274
 30
0.0
 10
-4.46063
 20
-1.00943
 30
0.0
 10
-4.2932
 20
-0.91669
 30
0.0
 10
-4.08952
 20
-0.89764
 30
0.0
 10
-4.08952
 20
-0.89764
 30
0.0
 10
-4.2183
 20
-0.82884
 30
0.0
 10
-4.35641
 20
-0.96003
 30
0.0
 10
-4.40347
 20
-0.92503
 30
0.0
 10
-4.40347
 20
-0.92503
 30
0.0
 10
-4.45057
 20
-0.89006
 30
0.0
 10
-4.27425
 20
-0.64332
 30
0.0
 10
-3.65974
 20
-0.69014
 30
0.0
 10
-3.65974
 20
-0.69014
 30
0.0
 10
-3.89253
 20
-0.5387
 30
0.0
 10
-4.08514
 20
-0.69128
 30
0.0
 10
-4.11426
 20
-0.60698
 30
0.0
 10
-4.11426
 20
-0.60698
 30
0.0
 10
-4.1433
 20
-0.52274
 30
0.0
 10
-3.5824
 20
-0.53958
 30
0.0
 10
-3.63597
 20
-0.33707
 30
0.0
 10
-3.63597
 20
-0.33707
 30
0.0
 10
-3.71039
 20
-0.46516
 30
0.0
 10
-4.11329
 20
-0.46926
 30
0.0
 10
-4.30512
 20
-0.61624
 30
0.0
 10
-4.30512
 20
-0.61624
 30
0.0
 10
-4.49697
 20
-0.76321
 30
0.0
 10
-4.52443
 20
-1.14465
 30
0.0
 10
-4.59602
 20
-1.16384
 30
0.0
 10
-4.59602
 20
-1.16384
 30
0.0
 10
-4.66747
 20
-1.1832
 30
0.0
 10
-4.58303
 20
-0.93571
 30
0.0
 10
-4.75053
 20
-0.94229
 30
0.0
  0
SPLINE
  5
AC
330
1F
100
AcDbEntity
  8
Layer 1
100
AcDbSpline
210
0.0
220
0.0
230
1.0
 70
    11
 71
     3
 72
    28
 73
    24
 74
     0
 42
0.0000000001
 43
0.0000000001
 40
0.0
 40
0.0
 40
0.0
 40
0.0
 40
0.1666666666666667
 40
0.1666666666666667
 40
0.1666666666666667
 40
0.1666666666666667
 40
0.3333333333333333
 40
0.3333333333333333
 40
0.3333333333333333
 40
0.3333333333333333
 40
0.5
 40
0.5
 40
0.5
 40
0.5
 40
0.6666666666666666
 40
0.6666666666666666
 40
0.6666666666666666
 40
0.6666666666666666
 40
0.8333333333333333
 40
0.8333333333333333
 40
0.8333333333333333
 40
0.8333333333333333
 40
1.0
 40
1.0
 40
1.0
 40
1.0
 10
-3.2649
 20
-1.48379
 30
0.0
 10
-3.21608
 20
-1.66323
 30
0.0
 10
-3.36888
 20
-2.18255
 30
0.0
 10
-3.7098
 20
-2.02249
 30
0.0
 10
-3.7098
 20
-2.02249
 30
0.0
 10
-4.05063
 20
-1.86243
 30
0.0
 10
-3.95502
 20
-1.4441
 30
0.0
 10
-3.74708
 20
-1.52341
 30
0.0
 10
-3.74708
 20
-1.52341
 30
0.0
 10
-3.53924
 20
-1.60261
 30
0.0
 10
-3.84919
 20
-1.8604
 30
0.0
 10
-3.61647
 20
-1.92565
 30
0.0
 10
-3.61647
 20
-1.92565
 30
0.0
 10
-3.38372
 20
-1.99096
 30
0.0
 10
-3.5062
 20
-1.91728
 30
0.0
 10
-3.5062
 20
-1.91728
 30
0.0
 10
-3.5062
 20
-1.91728
 30
0.0
 10
-3.57582
 20
-1.87934
 30
0.0
 10
-3.66929
 20
-1.80379
 30
0.0
 10
-3.60838
 20
-1.6911
 30
0.0
 10
-3.60838
 20
-1.6911
 30
0.0
 10
-3.58685
 20
-1.74564
 30
0.0
 10
-3.36353
 20
-1.92465
 30
0.0
 10
-3.2649
 20
-1.48379
 30
0.0
  0
SPLINE
  5
AD
330
1F
100
AcDbEntity
  8
Layer 1
100
AcDbSpline
210
0.0
220
0.0
230
1.0
 70
    11
 71
     3
 72
    48
 73
    44
 74
     0
 42
0.0000000001
 43
0.0000000001
 40
0.0
 40
0.0
 40
0.0
 40
0.0
 40
0.0909090909090909
 40
0.0909090909090909
 40
0.0909090909090909
 40
0.0909090909090909
 40
0.1818181818181818
 40
0.1818181818181818
 40
0.1818181818181818
 40
0.1818181818181818
 40
0.2727272727272727
 40
0.2727272727272727
 40
0.2727272727272727
 40
0.2727272727272727
 40
0.3636363636363636
 40
0.3636363636363636
 40
0.3636363636363636
 40
0.3636363636363636
 40
0.4545454545454546
 40
0.4545454545454546
 40
0.4545454545454546
 40
0.4545454545454546
 40
0.5454545454545455
 40
0.5454545454545455
 40
0.5454545454545455
 40
0.5454545454545455
 40
0.6363636363636365
 40
0.6363636363636365
 40
0.6363636363636365
 40
0.6363636363636365
 40
0.7272727272727274
 40
0.7272727272727274
 40
0.7272727272727274
 40
0.7272727272727274
 40
0.8181818181818183
 40
0.8181818181818183
 40
0.8181818181818183
 40
0.8181818181818183
 40
0.9090909090909093
 40
0.9090909090909093
 40
0.9090909090909093
 40
0.9090909090909093
 40
1.0
 40
1.0
 40
1.0
 40
1.0
 10
-2.9052
 20
-1.67508
 30
0.0
 10
-2.82496
 20
-1.82594
 30
0.0
 10
-2.51494
 20
-1.93932
 30
0.0
 10
-2.35819
 20
-1.66706
 30
0.0
 10
-2.35819
 20
-1.66706
 30
0.0
 10
-2.28867
 20
-1.53257
 30
0.0
 10
-2.27023
 20
-1.52351
 30
0.0
 10
-2.20998
 20
-1.50274
 30
0.0
 10
-2.20998
 20
-1.50274
 30
0.0
 10
-2.22155
 20
-1.63344
 30
0.0
 10
-2.35088
 20
-1.82887
 30
0.0
 10
-2.52217
 20
-1.86367
 30
0.0
 10
-2.52217
 20
-1.86367
 30
0.0
 10
-2.12561
 20
-2.03682
 30
0.0
 10
-2.21845
 20
-1.78323
 30
0.0
 10
-1.923
 20
-1.67863
 30
0.0
 10
-1.923
 20
-1.67863
 30
0.0
 10
-2.12444
 20
-1.59452
 30
0.0
 10
-2.22069
 20
-1.80011
 30
0.0
 10
-2.30193
 20
-1.80662
 30
0.0
 10
-2.30193
 20
-1.80662
 30
0.0
 10
-2.28477
 20
-1.67674
 30
0.0
 10
-1.88304
 20
-1.33345
 30
0.0
 10
-2.2619
 20
-1.15685
 30
0.0
 10
-2.2619
 20
-1.15685
 30
0.0
 10
-2.21993
 20
-1.31749
 30
0.0
 10
-2.31564
 20
-1.25893
 30
0.0
 10
-2.34785
 20
-1.41551
 30
0.0
 10
-2.34785
 20
-1.41551
 30
0.0
 10
-2.3801
 20
-1.57216
 30
0.0
 10
-2.39422
 20
-1.76566
 30
0.0
 10
-2.58553
 20
-1.73461
 30
0.0
 10
-2.58553
 20
-1.73461
 30
0.0
 10
-2.43384
 20
-1.67429
 30
0.0
 10
-2.35009
 20
-1.43253
 30
0.0
 10
-2.46946
 20
-1.42247
 30
0.0
 10
-2.46946
 20
-1.42247
 30
0.0
 10
-2.58884
 20
-1.41241
 30
0.0
 10
-2.60389
 20
-1.43911
 30
0.0
 10
-2.60672
 20
-1.63413
 30
0.0
 10
-2.60672
 20
-1.63413
 30
0.0
 10
-2.62694
 20
-1.70034
 30
0.0
 10
-2.70445
 20
-1.76479
 30
0.0
 10
-2.9052
 20
-1.67508
 30
0.0
  0
SPLINE
  5
AE
330
1F
100
AcDbEntity
  8
Layer 1
100
AcDbSpline
210
0.0
220
0.0
230
1.0
 70
    11
 71
     3
 72
    16
 73
    12
 74
     0
 42
0.0000000001
 43
0.0000000001
 40
0.0
 40
0.0
 40
0.0
 40
0.0
 40
0.3333333333333333
 40
0.3333333333333333
 40
0.3333333333333333
 40
0.3333333333333333
 40
0.6666666666666666
 40
0.6666666666666666
 40
0.6666666666666666
 40
0.6666666666666666
 40
1.0
 40
1.0
 40
1.0
 40
1.0
 10
-3.72089
 20
-0.54421
 30
0.0
 10
-3.75876
 20
-0.59278
 30
0.0
 10
-3.39557
 20
-0.60453
 30
0.0
 10
-3.2463
 20
-0.3887
 30
0.0
 10
-3.2463
 20
-0.3887
 30
0.0
 10
-3.22411
 20
-0.35139
 30
0.0
 10
-3.23961
 20
-0.33786
 30
0.0
 10
-3.2802
 20
-0.38415
 30
0.0
 10
-3.2802
 20
-0.38415
 30
0.0
 10
-3.32078
 20
-0.43054
 30
0.0
 10
-3.51612
 20
-0.55988
 30
0.0
 10
-3.72089
 20
-0.54421
 30
0.0
  0
SPLINE
  5
AF
330
1F
100
AcDbEntity
  8
Layer 1
100
AcDbSpline
210
0.0
220
0.0
230
1.0
 70
    11
 71
     3
 72
    16
 73
    12
 74
     0
 42
0.0000000001
 43
0.0000000001
 40
0.0
 40
0.0
 40
0.0
 40
0.0
 40
0.3333333333333333
 40
0.3333333333333333
 40
0.3333333333333333
 40
0.3333333333333333
 40
0.6666666666666666
 40
0.6666666666666666
 40
0.6666666666666666
 40
0.6666666666666666
 40
1.0
 40
1.0
 40
1.0
 40
1.0
 10
-3.158
 20
-0.28544
 30
0.0
 10
-3.18308
 20
-0.34534
 30
0.0
 10
-3.37404
 20
-0.26834
 30
0.0
 10
-3.36281
 20
-0.18359
 30
0.0
 10
-3.36281
 20
-0.18359
 30
0.0
 10
-3.35161
 20
-0.09886
 30
0.0
 10
-3.21574
 20
-0.0709
 30
0.0
 10
-3.19662
 20
0.03004
 30
0.0
 10
-3.19662
 20
0.03004
 30
0.0
 10
-3.19269
 20
-0.11416
 30
0.0
 10
-3.0656
 20
-0.02186
 30
0.0
 10
-3.158
 20
-0.28544
 30
0.0
  0
SPLINE
  5
B0
330
1F
100
AcDbEntity
  8
Layer 1
100
AcDbSpline
210
0.0
220
0.0
230
1.0
 70
    11
 71
     3
 72
    20
 73
    16
 74
     0
 42
0.0000000001
 43
0.0000000001
 40
0.0
 40
0.0
 40
0.0
 40
0.0
 40
0.25
 40
0.25
 40
0.25
 40
0.25
 40
0.5
 40
0.5
 40
0.5
 40
0.5
 40
0.75
 40
0.75
 40
0.75
 40
0.75
 40
1.0
 40
1.0
 40
1.0
 40
1.0
 10
-3.04449
 20
-0.03611
 30
0.0
 10
-3.04493
 20
0.00413
 30
0.0
 10
-3.00356
 20
0.0561
 30
0.0
 10
-2.97534
 20
0.05238
 30
0.0
 10
-2.97534
 20
0.05238
 30
0.0
 10
-2.94702
 20
0.04863
 30
0.0
 10
-2.88525
 20
-0.00548
 30
0.0
 10
-2.94923
 20
-0.05444
 30
0.0
 10
-2.94923
 20
-0.05444
 30
0.0
 10
-2.84794
 20
-0.02765
 30
0.0
 10
-2.81535
 20
0.08871
 30
0.0
 10
-2.94148
 20
0.13408
 30
0.0
 10
-2.94148
 20
0.13408
 30
0.0
 10
-3.06763
 20
0.17957
 30
0.0
 10
-3.10963
 20
0.03574
 30
0.0
 10
-3.04449
 20
-0.03611
 30
0.0
  0
SPLINE
  5
B1
330
1F
100
AcDbEntity
  8
Layer 1
100
AcDbSpline
210
0.0
220
0.0
230
1.0
 70
    11
 71
     3
 72
    16
 73
    12
 74
     0
 42
0.0000000001
 43
0.0000000001
 40
0.0
 40
0.0
 40
0.0
 40
0.0
 40
0.3333333333333333
 40
0.3333333333333333
 40
0.3333333333333333
 40
0.3333333333333333
 40
0.6666666666666666
 40
0.6666666666666666
 40
0.6666666666666666
 40
0.6666666666666666
 40
1.0
 40
1.0
 40
1.0
 40
1.0
 10
-3.12934
 20
-0.32949
 30
0.0
 10
-3.12479
 20
-0.18673
 30
0.0
 10
-2.80922
 20
-0.0385
 30
0.0
 10
-2.67321
 20
-0.09681
 30
0.0
 10
-2.67321
 20
-0.09681
 30
0.0
 10
-2.81663
 20
-0.1812
 30
0.0
 10
-2.81794
 20
-0.36493
 30
0.0
 10
-2.9278
 20
-0.41362
 30
0.0
 10
-2.9278
 20
-0.41362
 30
0.0
 10
-3.04004
 20
-0.46328
 30
0.0
 10
-3.13299
 20
-0.44387
 30
0.0
 10
-3.12934
 20
-0.32949
 30
0.0
  0
SPLINE
  5
B2
330
1F
100
AcDbEntity
  8
Layer 1
100
AcDbSpline
210
0.0
220
0.0
230
1.0
 70
    11
 71
     3
 72
    20
 73
    16
 74
     0
 42
0.0000000001
 43
0.0000000001
 40
0.0
 40
0.0
 40
0.0
 40
0.0
 40
0.25
 40
0.25
 40
0.25
 40
0.25
 40
0.5
 40
0.5
 40
0.5
 40
0.5
 40
0.75
 40
0.75
 40
0.75
 40
0.75
 40
1.0
 40
1.0
 40
1.0
 40
1.0
 10
-1.0094
 20
1.17138
 30
0.0
 10
-1.0094
 20
1.12525
 30
0.0
 10
-0.97195
 20
1.08787
 30
0.0
 10
-0.92582
 20
1.08787
 30
0.0
 10
-0.92582
 20
1.08787
 30
0.0
 10
-0.87969
 20
1.08787
 30
0.0
 10
-0.84224
 20
1.12525
 30
0.0
 10
-0.84224
 20
1.17138
 30
0.0
 10
-0.84224
 20
1.17138
 30
0.0
 10
-0.84224
 20
1.21758
 30
0.0
 10
-0.87969
 20
1.25496
 30
0.0
 10
-0.92582
 20
1.25496
 30
0.0
 10
-0.92582
 20
1.25496
 30
0.0
 10
-0.97195
 20
1.25496
 30
0.0
 10
-1.0094
 20
1.21758
 30
0.0
 10
-1.0094
 20
1.17138
 30
0.0
  0
SPLINE
  5
B3
330
1F
100
AcDbEntity
  8
Layer 1
100
AcDbSpline
210
0.0
220
0.0
230
1.0
 70
    11
 71
     3
 72
    20
 73
    16
 74
     0
 42
0.0000000001
 43
0.0000000001
 40
0.0
 40
0.0
 40
0.0
 40
0.0
 40
0.25
 40
0.25
 40
0.25
 40
0.25
 40
0.5
 40
0.5
 40
0.5
 40
0.5
 40
0.75
 40
0.75
 40
0.75
 40
0.75
 40
1.0
 40
1.0
 40
1.0
 40
1.0
 10
-1.00557
 20
-1.40162
 30
0.0
 10
-1.00557
 20
-1.44675
 30
0.0
 10
-0.96899
 20
-1.48324
 30
0.0
 10
-0.92392
 20
-1.48324
 30
0.0
 10
-0.92392
 20
-1.48324
 30
0.0
 10
-0.87879
 20
-1.48324
 30
0.0
 10
-0.84231
 20
-1.44675
 30
0.0
 10
-0.84231
 20
-1.40162
 30
0.0
 10
-0.84231
 20
-1.40162
 30
0.0
 10
-0.84231
 20
-1.35649
 30
0.0
 10
-0.87879
 20
-1.32001
 30
0.0
 10
-0.92392
 20
-1.32001
 30
0.0
 10
-0.92392
 20
-1.32001
 30
0.0
 10
-0.96899
 20
-1.32001
 30
0.0
 10
-1.00557
 20
-1.35649
 30
0.0
 10
-1.00557
 20
-1.40162
 30
0.0
  0
SPLINE
  5
B4
330
1F
100
AcDbEntity
  8
Layer 1
100
AcDbSpline
210
0.0
220
0.0
230
1.0
 70
    11
 71
     3
 72
    20
 73
    16
 74
     0
 42
0.0000000001
 43
0.0000000001
 40
0.0
 40
0.0
 40
0.0
 40
0.0
 40
0.25
 40
0.25
 40
0.25
 40
0.25
 40
0.5
 40
0.5
 40
0.5
 40
0.5
 40
0.75
 40
0.75
 40
0.75
 40
0.75
 40
1.0
 40
1.0
 40
1.0
 40
1.0
 10
-1.00557
 20
-2.35115
 30
0.0
 10
-1.00557
 20
-2.38364
 30
0.0
 10
-0.96988
 20
-2.40999
 30
0.0
 10
-0.92582
 20
-2.40999
 30
0.0
 10
-0.92582
 20
-2.40999
 30
0.0
 10
-0.88176
 20
-2.40999
 30
0.0
 10
-0.84607
 20
-2.38364
 30
0.0
 10
-0.84607
 20
-2.35115
 30
0.0
 10
-0.84607
 20
-2.35115
 30
0.0
 10
-0.84607
 20
-2.31856
 30
0.0
 10
-0.88176
 20
-2.29224
 30
0.0
 10
-0.92582
 20
-2.29224
 30
0.0
 10
-0.92582
 20
-2.29224
 30
0.0
 10
-0.96988
 20
-2.29224
 30
0.0
 10
-1.00557
 20
-2.31856
 30
0.0
 10
-1.00557
 20
-2.35115
 30
0.0
  0
SPLINE
  5
B5
330
1F
100
AcDbEntity
  8
Layer 1
100
AcDbSpline
210
0.0
220
0.0
230
1.0
 70
    11
 71
     3
 72
    40
 73
    36
 74
     0
 42
0.0000000001
 43
0.0000000001
 40
0.0
 40
0.0
 40
0.0
 40
0.0
 40
0.1111111111111111
 40
0.1111111111111111
 40
0.1111111111111111
 40
0.1111111111111111
 40
0.2222222222222222
 40
0.2222222222222222
 40
0.2222222222222222
 40
0.2222222222222222
 40
0.3333333333333333
 40
0.3333333333333333
 40
0.3333333333333333
 40
0.3333333333333333
 40
0.4444444444444444
 40
0.4444444444444444
 40
0.4444444444444444
 40
0.4444444444444444
 40
0.5555555555555556
 40
0.5555555555555556
 40
0.5555555555555556
 40
0.5555555555555556
 40
0.6666666666666667
 40
0.6666666666666667
 40
0.6666666666666667
 40
0.6666666666666667
 40
0.7777777777777779
 40
0.7777777777777779
 40
0.7777777777777779
 40
0.7777777777777779
 40
0.8888888888888891
 40
0.8888888888888891
 40
0.8888888888888891
 40
0.8888888888888891
 40
1.0
 40
1.0
 40
1.0
 40
1.0
 10
-0.3765
 20
-0.43987
 30
0.0
 10
-0.2173
 20
-0.56429
 30
0.0
 10
-0.31873
 20
-0.65025
 30
0.0
 10
-0.31873
 20
-0.65025
 30
0.0
 10
-0.31873
 20
-0.65025
 30
0.0
 10
-0.3662
 20
-0.62472
 30
0.0
 10
-0.43489
 20
-0.60987
 30
0.0
 10
-0.53146
 20
-0.59764
 30
0.0
 10
-0.53146
 20
-0.59764
 30
0.0
 10
-0.66241
 20
-0.47708
 30
0.0
 10
-0.64835
 20
0.16774
 30
0.0
 10
-0.77327
 20
0.24322
 30
0.0
 10
-0.77327
 20
0.24322
 30
0.0
 10
-0.76115
 20
0.24758
 30
0.0
 10
-0.74867
 20
0.2507
 30
0.0
 10
-0.73589
 20
0.2524
 30
0.0
 10
-0.73589
 20
0.2524
 30
0.0
 10
-0.54931
 20
0.14497
 30
0.0
 10
-0.57108
 20
-0.21217
 30
0.0
 10
-0.43979
 20
-0.37871
 30
0.0
 10
-0.43979
 20
-0.37871
 30
0.0
 10
-0.57108
 20
-0.21217
 30
0.0
 10
-0.52464
 20
0.14638
 30
0.0
 10
-0.71119
 20
0.2539
 30
0.0
 10
-0.71119
 20
0.2539
 30
0.0
 10
-0.63671
 20
0.25275
 30
0.0
 10
-0.55409
 20
0.19997
 30
0.0
 10
-0.47896
 20
0.04713
 30
0.0
 10
-0.47896
 20
0.04713
 30
0.0
 10
-0.40909
 20
-0.10038
 30
0.0
 10
-0.44978
 20
-0.15343
 30
0.0
 10
-0.28369
 20
-0.42554
 30
0.0
 10
-0.28369
 20
-0.42554
 30
0.0
 10
-0.30935
 20
-0.42583
 30
0.0
 10
-0.34846
 20
-0.43417
 30
0.0
 10
-0.3765
 20
-0.43987
 30
0.0
  0
SPLINE
  5
B6
330
1F
100
AcDbEntity
  8
Layer 1
100
AcDbSpline
210
0.0
220
0.0
230
1.0
 70
    11
 71
     3
 72
    12
 73
     8
 74
     0
 42
0.0000000001
 43
0.0000000001
 40
0.0
 40
0.0
 40
0.0
 40
0.0
 40
0.5
 40
0.5
 40
0.5
 40
0.5
 40
1.0
 40
1.0
 40
1.0
 40
1.0
 10
-0.37926
 20
-1.13566
 30
0.0
 10
-0.36262
 20
-1.04406
 30
0.0
 10
-0.37013
 20
-0.9756
 30
0.0
 10
-0.34553
 20
-0.91817
 30
0.0
 10
-0.34553
 20
-0.91817
 30
0.0
 10
-0.30009
 20
-0.97205
 30
0.0
 10
-0.27731
 20
-1.07175
 30
0.0
 10
-0.37926
 20
-1.13566
 30
0.0
  0
SPLINE
  5
B7
330
1F
100
AcDbEntity
  8
Layer 1
100
AcDbSpline
210
0.0
220
0.0
230
1.0
 70
    11
 71
     3
 72
    72
 73
    68
 74
     0
 42
0.0000000001
 43
0.0000000001
 40
0.0
 40
0.0
 40
0.0
 40
0.0
 40
0.0588235294117647
 40
0.0588235294117647
 40
0.0588235294117647
 40
0.0588235294117647
 40
0.1176470588235294
 40
0.1176470588235294
 40
0.1176470588235294
 40
0.1176470588235294
 40
0.1764705882352941
 40
0.1764705882352941
 40
0.1764705882352941
 40
0.1764705882352941
 40
0.2352941176470588
 40
0.2352941176470588
 40
0.2352941176470588
 40
0.2352941176470588
 40
0.2941176470588235
 40
0.2941176470588235
 40
0.2941176470588235
 40
0.2941176470588235
 40
0.3529411764705883
 40
0.3529411764705883
 40
0.3529411764705883
 40
0.3529411764705883
 40
0.411764705882353
 40
0.411764705882353
 40
0.411764705882353
 40
0.411764705882353
 40
0.4705882352941177
 40
0.4705882352941177
 40
0.4705882352941177
 40
0.4705882352941177
 40
0.5294117647058824
 40
0.5294117647058824
 40
0.5294117647058824
 40
0.5294117647058824
 40
0.5882352941176471
 40
0.5882352941176471
 40
0.5882352941176471
 40
0.5882352941176471
 40
0.6470588235294118
 40
0.6470588235294118
 40
0.6470588235294118
 40
0.6470588235294118
 40
0.7058823529411765
 40
0.7058823529411765
 40
0.7058823529411765
 40
0.7058823529411765
 40
0.7647058823529412
 40
0.7647058823529412
 40
0.7647058823529412
 40
0.7647058823529412
 40
0.823529411764706
 40
0.823529411764706
 40
0.823529411764706
 40
0.823529411764706
 40
0.8823529411764707
 40
0.8823529411764707
 40
0.8823529411764707
 40
0.8823529411764707
 40
0.9411764705882354
 40
0.9411764705882354
 40
0.9411764705882354
 40
0.9411764705882354
 40
1.0
 40
1.0
 40
1.0
 40
1.0
 10
-0.50835
 20
-0.73675
 30
0.0
 10
-0.50835
 20
-0.72208
 30
0.0
 10
-0.50676
 20
-0.70623
 30
0.0
 10
-0.50504
 20
-0.69004
 30
0.0
 10
-0.50504
 20
-0.69004
 30
0.0
 10
-0.50335
 20
-0.67361
 30
0.0
 10
-0.50166
 20
-0.65676
 30
0.0
 10
-0.50166
 20
-0.64057
 30
0.0
 10
-0.50166
 20
-0.64057
 30
0.0
 10
-0.50166
 20
-0.63495
 30
0.0
 10
-0.5039
 20
-0.63016
 30
0.0
 10
-0.50442
 20
-0.62472
 30
0.0
 10
-0.50442
 20
-0.62472
 30
0.0
 10
-0.30898
 20
-0.65266
 30
0.0
 10
-0.25623
 20
-0.69469
 30
0.0
 10
-0.24872
 20
-0.82285
 30
0.0
 10
-0.24872
 20
-0.82285
 30
0.0
 10
-0.2317
 20
-0.75984
 30
0.0
 10
-0.24658
 20
-0.70161
 30
0.0
 10
-0.28644
 20
-0.66868
 30
0.0
 10
-0.28644
 20
-0.66868
 30
0.0
 10
-0.28644
 20
-0.66868
 30
0.0
 10
-0.1842
 20
-0.58458
 30
0.0
 10
-0.33433
 20
-0.44938
 30
0.0
 10
-0.33433
 20
-0.44938
 30
0.0
 10
-0.08573
 20
-0.41645
 30
0.0
 10
0.05355
 20
-0.5892
 30
0.0
 10
0.0469
 20
-0.84286
 30
0.0
 10
0.0469
 20
-0.84286
 30
0.0
 10
0.07784
 20
-0.72959
 30
0.0
 10
0.17916
 20
-0.67019
 30
0.0
 10
0.29257
 20
-0.61504
 30
0.0
 10
0.29257
 20
-0.61504
 30
0.0
 10
0.22963
 20
-0.70375
 30
0.0
 10
0.29933
 20
-0.81816
 30
0.0
 10
0.2185
 20
-0.92362
 30
0.0
 10
0.2185
 20
-0.92362
 30
0.0
 10
0.08883
 20
-1.073
 30
0.0
 10
0.06372
 20
-1.01308
 30
0.0
 10
-0.01624
 20
-1.10414
 30
0.0
 10
-0.01624
 20
-1.10414
 30
0.0
 10
-0.01624
 20
-1.10414
 30
0.0
 10
-0.04246
 20
-0.99259
 30
0.0
 10
-0.02093
 20
-0.93805
 30
0.0
 10
-0.02093
 20
-0.93805
 30
0.0
 10
-0.08515
 20
-1.14765
 30
0.0
 10
-0.23304
 20
-1.20236
 30
0.0
 10
-0.39841
 20
-1.21273
 30
0.0
 10
-0.39841
 20
-1.21273
 30
0.0
 10
-0.3919
 20
-1.19244
 30
0.0
 10
-0.38701
 20
-1.17332
 30
0.0
 10
-0.38308
 20
-1.15499
 30
0.0
 10
-0.38308
 20
-1.15499
 30
0.0
 10
-0.24748
 20
-1.0906
 30
0.0
 10
-0.28541
 20
-0.94604
 30
0.0
 10
-0.33385
 20
-0.89602
 30
0.0
 10
-0.33385
 20
-0.89602
 30
0.0
 10
-0.32344
 20
-0.87931
 30
0.0
 10
-0.30953
 20
-0.86346
 30
0.0
 10
-0.2901
 20
-0.84813
 30
0.0
 10
-0.2901
 20
-0.84813
 30
0.0
 10
-0.32293
 20
-0.83391
 30
0.0
 10
-0.41736
 20
-0.76731
 30
0.0
 10
-0.50121
 20
-0.78581
 30
0.0
 10
-0.50121
 20
-0.78581
 30
0.0
 10
-0.51689
 20
-0.77238
 30
0.0
 10
-0.50835
 20
-0.7609
 30
0.0
 10
-0.50835
 20
-0.73675
 30
0.0
  0
SPLINE
  5
B8
330
1F
100
AcDbEntity
  8
Layer 1
100
AcDbSpline
210
0.0
220
0.0
230
1.0
 70
    11
 71
     3
 72
    48
 73
    44
 74
     0
 42
0.0000000001
 43
0.0000000001
 40
0.0
 40
0.0
 40
0.0
 40
0.0
 40
0.0909090909090909
 40
0.0909090909090909
 40
0.0909090909090909
 40
0.0909090909090909
 40
0.1818181818181818
 40
0.1818181818181818
 40
0.1818181818181818
 40
0.1818181818181818
 40
0.2727272727272727
 40
0.2727272727272727
 40
0.2727272727272727
 40
0.2727272727272727
 40
0.3636363636363636
 40
0.3636363636363636
 40
0.3636363636363636
 40
0.3636363636363636
 40
0.4545454545454546
 40
0.4545454545454546
 40
0.4545454545454546
 40
0.4545454545454546
 40
0.5454545454545455
 40
0.5454545454545455
 40
0.5454545454545455
 40
0.5454545454545455
 40
0.6363636363636365
 40
0.6363636363636365
 40
0.6363636363636365
 40
0.6363636363636365
 40
0.7272727272727274
 40
0.7272727272727274
 40
0.7272727272727274
 40
0.7272727272727274
 40
0.8181818181818183
 40
0.8181818181818183
 40
0.8181818181818183
 40
0.8181818181818183
 40
0.9090909090909093
 40
0.9090909090909093
 40
0.9090909090909093
 40
0.9090909090909093
 40
1.0
 40
1.0
 40
1.0
 40
1.0
 10
-0.5274
 20
-0.79332
 30
0.0
 10
-0.5646
 20
-0.80638
 30
0.0
 10
-0.60642
 20
-0.83105
 30
0.0
 10
-0.65531
 20
-0.87246
 30
0.0
 10
-0.65531
 20
-0.87246
 30
0.0
 10
-0.65924
 20
-0.82419
 30
0.0
 10
-0.68146
 20
-0.77562
 30
0.0
 10
-0.70595
 20
-0.71264
 30
0.0
 10
-0.70595
 20
-0.71264
 30
0.0
 10
-0.74323
 20
-0.73493
 30
0.0
 10
-0.76249
 20
-0.72752
 30
0.0
 10
-0.77586
 20
-0.76359
 30
0.0
 10
-0.77586
 20
-0.76359
 30
0.0
 10
-0.77379
 20
-0.64839
 30
0.0
 10
-0.91059
 20
-0.52197
 30
0.0
 10
-0.91059
 20
-0.52197
 30
0.0
 10
-0.91059
 20
-0.52197
 30
0.0
 10
-0.91059
 20
-0.52197
 30
0.0
 10
-0.91059
 20
0.09333
 30
0.0
 10
-0.91059
 20
0.09333
 30
0.0
 10
-0.91059
 20
0.09333
 30
0.0
 10
-0.89171
 20
0.12769
 30
0.0
 10
-0.87563
 20
0.17895
 30
0.0
 10
-0.83652
 20
0.20832
 30
0.0
 10
-0.83652
 20
0.20832
 30
0.0
 10
-0.76862
 20
-0.08729
 30
0.0
 10
-0.78337
 20
-0.25749
 30
0.0
 10
-0.73989
 20
-0.41264
 30
0.0
 10
-0.73989
 20
-0.41264
 30
0.0
 10
-0.78319
 20
-0.25828
 30
0.0
 10
-0.75133
 20
-0.07207
 30
0.0
 10
-0.81782
 20
0.22124
 30
0.0
 10
-0.81782
 20
0.22124
 30
0.0
 10
-0.80886
 20
0.22693
 30
0.0
 10
-0.79949
 20
0.23201
 30
0.0
 10
-0.78981
 20
0.23647
 30
0.0
 10
-0.78981
 20
0.23647
 30
0.0
 10
-0.66492
 20
0.16098
 30
0.0
 10
-0.68769
 20
-0.47644
 30
0.0
 10
-0.53087
 20
-0.61455
 30
0.0
 10
-0.53087
 20
-0.61455
 30
0.0
 10
-0.5152
 20
-0.68577
 30
0.0
 10
-0.54937
 20
-0.74561
 30
0.0
 10
-0.5274
 20
-0.79332
 30
0.0
  0
SPLINE
  5
B9
330
1F
100
AcDbEntity
  8
Layer 1
100
AcDbSpline
210
0.0
220
0.0
230
1.0
 70
    11
 71
     3
 72
    12
 73
     8
 74
     0
 42
0.0000000001
 43
0.0000000001
 40
0.0
 40
0.0
 40
0.0
 40
0.0
 40
0.5
 40
0.5
 40
0.5
 40
0.5
 40
1.0
 40
1.0
 40
1.0
 40
1.0
 10
-0.78095
 20
-0.81486
 30
0.0
 10
-0.77028
 20
-0.77654
 30
0.0
 10
-0.75925
 20
-0.7804
 30
0.0
 10
-0.72507
 20
-0.76001
 30
0.0
 10
-0.72507
 20
-0.76001
 30
0.0
 10
-0.72507
 20
-0.76001
 30
0.0
 10
-0.78095
 20
-0.81486
 30
0.0
 10
-0.78095
 20
-0.81486
 30
0.0
  0
SPLINE
  5
BA
330
1F
100
AcDbEntity
  8
Layer 1
100
AcDbSpline
210
0.0
220
0.0
230
1.0
 70
    11
 71
     3
 72
    36
 73
    32
 74
     0
 42
0.0000000001
 43
0.0000000001
 40
0.0
 40
0.0
 40
0.0
 40
0.0
 40
0.125
 40
0.125
 40
0.125
 40
0.125
 40
0.25
 40
0.25
 40
0.25
 40
0.25
 40
0.375
 40
0.375
 40
0.375
 40
0.375
 40
0.5
 40
0.5
 40
0.5
 40
0.5
 40
0.625
 40
0.625
 40
0.625
 40
0.625
 40
0.75
 40
0.75
 40
0.75
 40
0.75
 40
0.875
 40
0.875
 40
0.875
 40
0.875
 40
1.0
 40
1.0
 40
1.0
 40
1.0
 10
-0.72507
 20
-0.76001
 30
0.0
 10
-0.65238
 20
-0.88707
 30
0.0
 10
-0.67898
 20
-1.01619
 30
0.0
 10
-0.75036
 20
-1.11509
 30
0.0
 10
-0.75036
 20
-1.11509
 30
0.0
 10
-0.70647
 20
-1.0835
 30
0.0
 10
-0.65886
 20
-1.00526
 30
0.0
 10
-0.65758
 20
-0.90367
 30
0.0
 10
-0.65758
 20
-0.90367
 30
0.0
 10
-0.50521
 20
-0.75326
 30
0.0
 10
-0.42242
 20
-0.81317
 30
0.0
 10
-0.32782
 20
-0.84851
 30
0.0
 10
-0.32782
 20
-0.84851
 30
0.0
 10
-0.32782
 20
-0.84851
 30
0.0
 10
-0.40857
 20
-0.88982
 30
0.0
 10
-0.41078
 20
-1.13346
 30
0.0
 10
-0.41078
 20
-1.13346
 30
0.0
 10
-0.40926
 20
-1.40521
 30
0.0
 10
-0.91948
 20
-1.31157
 30
0.0
 10
-0.92582
 20
-1.14765
 30
0.0
 10
-0.92582
 20
-1.14765
 30
0.0
 10
-0.92582
 20
-1.14765
 30
0.0
 10
-0.92582
 20
-0.55952
 30
0.0
 10
-0.92582
 20
-0.55952
 30
0.0
 10
-0.92582
 20
-0.55952
 30
0.0
 10
-0.92582
 20
-0.55952
 30
0.0
 10
-0.80049
 20
-0.65159
 30
0.0
 10
-0.78095
 20
-0.81486
 30
0.0
 10
-0.78095
 20
-0.81486
 30
0.0
 10
-0.78095
 20
-0.81486
 30
0.0
 10
-0.72507
 20
-0.76001
 30
0.0
 10
-0.72507
 20
-0.76001
 30
0.0
  0
SPLINE
  5
BB
330
1F
100
AcDbEntity
  8
Layer 1
100
AcDbSpline
210
0.0
220
0.0
230
1.0
 70
    11
 71
     3
 72
    92
 73
    88
 74
     0
 42
0.0000000001
 43
0.0000000001
 40
0.0
 40
0.0
 40
0.0
 40
0.0
 40
0.0454545454545455
 40
0.0454545454545455
 40
0.0454545454545455
 40
0.0454545454545455
 40
0.0909090909090909
 40
0.0909090909090909
 40
0.0909090909090909
 40
0.0909090909090909
 40
0.1363636363636364
 40
0.1363636363636364
 40
0.1363636363636364
 40
0.1363636363636364
 40
0.1818181818181818
 40
0.1818181818181818
 40
0.1818181818181818
 40
0.1818181818181818
 40
0.2272727272727273
 40
0.2272727272727273
 40
0.2272727272727273
 40
0.2272727272727273
 40
0.2727272727272728
 40
0.2727272727272728
 40
0.2727272727272728
 40
0.2727272727272728
 40
0.3181818181818182
 40
0.3181818181818182
 40
0.3181818181818182
 40
0.3181818181818182
 40
0.3636363636363637
 40
0.3636363636363637
 40
0.3636363636363637
 40
0.3636363636363637
 40
0.4090909090909092
 40
0.4090909090909092
 40
0.4090909090909092
 40
0.4090909090909092
 40
0.4545454545454546
 40
0.4545454545454546
 40
0.4545454545454546
 40
0.4545454545454546
 40
0.5000000000000001
 40
0.5000000000000001
 40
0.5000000000000001
 40
0.5000000000000001
 40
0.5454545454545455
 40
0.5454545454545455
 40
0.5454545454545455
 40
0.5454545454545455
 40
0.5909090909090909
 40
0.5909090909090909
 40
0.5909090909090909
 40
0.5909090909090909
 40
0.6363636363636364
 40
0.6363636363636364
 40
0.6363636363636364
 40
0.6363636363636364
 40
0.6818181818181818
 40
0.6818181818181818
 40
0.6818181818181818
 40
0.6818181818181818
 40
0.7272727272727272
 40
0.7272727272727272
 40
0.7272727272727272
 40
0.7272727272727272
 40
0.7727272727272726
 40
0.7727272727272726
 40
0.7727272727272726
 40
0.7727272727272726
 40
0.818181818181818
 40
0.818181818181818
 40
0.818181818181818
 40
0.818181818181818
 40
0.8636363636363634
 40
0.8636363636363634
 40
0.8636363636363634
 40
0.8636363636363634
 40
0.9090909090909088
 40
0.9090909090909088
 40
0.9090909090909088
 40
0.9090909090909088
 40
0.9545454545454543
 40
0.9545454545454543
 40
0.9545454545454543
 40
0.9545454545454543
 40
1.0
 40
1.0
 40
1.0
 40
1.0
 10
-0.40123
 20
-1.22137
 30
0.0
 10
-0.29947
 20
-1.27595
 30
0.0
 10
-0.34587
 20
-1.43001
 30
0.0
 10
-0.07337
 20
-1.41055
 30
0.0
 10
-0.07337
 20
-1.41055
 30
0.0
 10
-0.18981
 20
-1.52937
 30
0.0
 10
-0.34243
 20
-1.33124
 30
0.0
 10
-0.42342
 20
-1.37068
 30
0.0
 10
-0.42342
 20
-1.37068
 30
0.0
 10
-0.21668
 20
-1.71684
 30
0.0
 10
-0.0787
 20
-1.93412
 30
0.0
 10
0.16466
 20
-2.16625
 30
0.0
 10
0.16466
 20
-2.16625
 30
0.0
 10
0.21878
 20
-2.22802
 30
0.0
 10
0.44736
 20
-2.1748
 30
0.0
 10
0.51761
 20
-2.31491
 30
0.0
 10
0.51761
 20
-2.31491
 30
0.0
 10
0.51761
 20
-2.31491
 30
0.0
 10
0.42776
 20
-2.11416
 30
0.0
 10
0.48136
 20
-1.99792
 30
0.0
 10
0.48136
 20
-1.99792
 30
0.0
 10
0.54503
 20
-2.00096
 30
0.0
 10
0.60001
 20
-1.98218
 30
0.0
 10
0.60001
 20
-1.98218
 30
0.0
 10
0.60001
 20
-1.98218
 30
0.0
 10
0.60001
 20
-1.98218
 30
0.0
 10
0.63181
 20
-2.17914
 30
0.0
 10
0.86219
 20
-2.18307
 30
0.0
 10
0.86219
 20
-2.18307
 30
0.0
 10
0.71746
 20
-2.39191
 30
0.0
 10
0.68077
 20
-2.20143
 30
0.0
 10
0.54913
 20
-2.07509
 30
0.0
 10
0.54913
 20
-2.07509
 30
0.0
 10
0.51109
 20
-2.39625
 30
0.0
 10
0.91283
 20
-2.43497
 30
0.0
 10
0.77351
 20
-2.81541
 30
0.0
 10
0.77351
 20
-2.81541
 30
0.0
 10
0.73489
 20
-2.65397
 30
0.0
 10
0.66785
 20
-2.66858
 30
0.0
 10
0.66785
 20
-2.66858
 30
0.0
 10
0.66785
 20
-2.66858
 30
0.0
 10
0.72393
 20
-3.09209
 30
0.0
 10
0.20703
 20
-3.13756
 30
0.0
 10
0.27958
 20
-2.81765
 30
0.0
 10
0.27958
 20
-2.81765
 30
0.0
 10
0.32709
 20
-2.74244
 30
0.0
 10
0.32399
 20
-2.89224
 30
0.0
 10
0.41994
 20
-2.87952
 30
0.0
 10
0.41994
 20
-2.87952
 30
0.0
 10
0.55774
 20
-2.87856
 30
0.0
 10
0.70943
 20
-2.54814
 30
0.0
 10
0.4487
 20
-2.35852
 30
0.0
 10
0.4487
 20
-2.35852
 30
0.0
 10
0.52312
 20
-2.48661
 30
0.0
 10
0.46252
 20
-2.50611
 30
0.0
 10
0.50682
 20
-2.5807
 30
0.0
 10
0.50682
 20
-2.5807
 30
0.0
 10
0.15835
 20
-2.46598
 30
0.0
 10
0.3159
 20
-2.26695
 30
0.0
 10
0.18636
 20
-2.24387
 30
0.0
 10
0.18636
 20
-2.24387
 30
0.0
 10
-0.01384
 20
-2.20711
 30
0.0
 10
0.04948
 20
-2.07802
 30
0.0
 10
-0.05431
 20
-1.98838
 30
0.0
 10
-0.05431
 20
-1.98838
 30
0.0
 10
-0.15811
 20
-1.89867
 30
0.0
 10
-0.27935
 20
-1.93774
 30
0.0
 10
-0.15529
 20
-2.0937
 30
0.0
 10
-0.15529
 20
-2.0937
 30
0.0
 10
0.01762
 20
-2.35815
 30
0.0
 10
0.16459
 20
-2.25252
 30
0.0
 10
0.18202
 20
-2.51448
 30
0.0
 10
0.18202
 20
-2.51448
 30
0.0
 10
0.12862
 20
-2.45839
 30
0.0
 10
0.08945
 20
-2.50952
 30
0.0
 10
0.05448
 20
-2.46239
 30
0.0
 10
0.05448
 20
-2.46239
 30
0.0
 10
0.05848
 20
-2.53663
 30
0.0
 10
0.09369
 20
-2.71581
 30
0.0
 10
-0.17806
 20
-2.65983
 30
0.0
 10
-0.17806
 20
-2.65983
 30
0.0
 10
0.15484
 20
-2.42839
 30
0.0
 10
-0.36403
 20
-2.07919
 30
0.0
 10
-0.53032
 20
-1.3258
 30
0.0
 10
-0.53032
 20
-1.3258
 30
0.0
 10
-0.47141
 20
-1.30898
 30
0.0
 10
-0.42342
 20
-1.27567
 30
0.0
 10
-0.40123
 20
-1.22137
 30
0.0
  0
SPLINE
  5
BC
330
1F
100
AcDbEntity
  8
Layer 1
100
AcDbSpline
210
0.0
220
0.0
230
1.0
 70
    11
 71
     3
 72
    40
 73
    36
 74
     0
 42
0.0000000001
 43
0.0000000001
 40
0.0
 40
0.0
 40
0.0
 40
0.0
 40
0.1111111111111111
 40
0.1111111111111111
 40
0.1111111111111111
 40
0.1111111111111111
 40
0.2222222222222222
 40
0.2222222222222222
 40
0.2222222222222222
 40
0.2222222222222222
 40
0.3333333333333333
 40
0.3333333333333333
 40
0.3333333333333333
 40
0.3333333333333333
 40
0.4444444444444444
 40
0.4444444444444444
 40
0.4444444444444444
 40
0.4444444444444444
 40
0.5555555555555556
 40
0.5555555555555556
 40
0.5555555555555556
 40
0.5555555555555556
 40
0.6666666666666667
 40
0.6666666666666667
 40
0.6666666666666667
 40
0.6666666666666667
 40
0.7777777777777779
 40
0.7777777777777779
 40
0.7777777777777779
 40
0.7777777777777779
 40
0.8888888888888891
 40
0.8888888888888891
 40
0.8888888888888891
 40
0.8888888888888891
 40
1.0
 40
1.0
 40
1.0
 40
1.0
 10
-1.47517
 20
-0.43987
 30
0.0
 10
-1.6343
 20
-0.56429
 30
0.0
 10
-1.53295
 20
-0.65025
 30
0.0
 10
-1.53295
 20
-0.65025
 30
0.0
 10
-1.53295
 20
-0.65025
 30
0.0
 10
-1.48541
 20
-0.62472
 30
0.0
 10
-1.41678
 20
-0.60987
 30
0.0
 10
-1.32015
 20
-0.59764
 30
0.0
 10
-1.32015
 20
-0.59764
 30
0.0
 10
-1.1892
 20
-0.47708
 30
0.0
 10
-1.20336
 20
0.16774
 30
0.0
 10
-1.0784
 20
0.24322
 30
0.0
 10
-1.0784
 20
0.24322
 30
0.0
 10
-1.0905
 20
0.24758
 30
0.0
 10
-1.10293
 20
0.2507
 30
0.0
 10
-1.11578
 20
0.2524
 30
0.0
 10
-1.11578
 20
0.2524
 30
0.0
 10
-1.30244
 20
0.14497
 30
0.0
 10
-1.2806
 20
-0.21217
 30
0.0
 10
-1.41178
 20
-0.37871
 30
0.0
 10
-1.41178
 20
-0.37871
 30
0.0
 10
-1.2806
 20
-0.21217
 30
0.0
 10
-1.327
 20
0.14638
 30
0.0
 10
-1.14045
 20
0.2539
 30
0.0
 10
-1.14045
 20
0.2539
 30
0.0
 10
-1.21504
 20
0.25275
 30
0.0
 10
-1.29755
 20
0.19997
 30
0.0
 10
-1.37272
 20
0.04713
 30
0.0
 10
-1.37272
 20
0.04713
 30
0.0
 10
-1.44262
 20
-0.10038
 30
0.0
 10
-1.4019
 20
-0.15343
 30
0.0
 10
-1.56799
 20
-0.42554
 30
0.0
 10
-1.56799
 20
-0.42554
 30
0.0
 10
-1.54229
 20
-0.42583
 30
0.0
 10
-1.50319
 20
-0.43417
 30
0.0
 10
-1.47517
 20
-0.43987
 30
0.0
  0
SPLINE
  5
BD
330
1F
100
AcDbEntity
  8
Layer 1
100
AcDbSpline
210
0.0
220
0.0
230
1.0
 70
    11
 71
     3
 72
    12
 73
     8
 74
     0
 42
0.0000000001
 43
0.0000000001
 40
0.0
 40
0.0
 40
0.0
 40
0.0
 40
0.5
 40
0.5
 40
0.5
 40
0.5
 40
1.0
 40
1.0
 40
1.0
 40
1.0
 10
-1.47232
 20
-1.13566
 30
0.0
 10
-1.48906
 20
-1.04406
 30
0.0
 10
-1.48158
 20
-0.9756
 30
0.0
 10
-1.50615
 20
-0.91817
 30
0.0
 10
-1.50615
 20
-0.91817
 30
0.0
 10
-1.55155
 20
-0.97205
 30
0.0
 10
-1.57433
 20
-1.07175
 30
0.0
 10
-1.47232
 20
-1.13566
 30
0.0
  0
SPLINE
  5
BE
330
1F
100
AcDbEntity
  8
Layer 1
100
AcDbSpline
210
0.0
220
0.0
230
1.0
 70
    11
 71
     3
 72
    72
 73
    68
 74
     0
 42
0.0000000001
 43
0.0000000001
 40
0.0
 40
0.0
 40
0.0
 40
0.0
 40
0.0588235294117647
 40
0.0588235294117647
 40
0.0588235294117647
 40
0.0588235294117647
 40
0.1176470588235294
 40
0.1176470588235294
 40
0.1176470588235294
 40
0.1176470588235294
 40
0.1764705882352941
 40
0.1764705882352941
 40
0.1764705882352941
 40
0.1764705882352941
 40
0.2352941176470588
 40
0.2352941176470588
 40
0.2352941176470588
 40
0.2352941176470588
 40
0.2941176470588235
 40
0.2941176470588235
 40
0.2941176470588235
 40
0.2941176470588235
 40
0.3529411764705883
 40
0.3529411764705883
 40
0.3529411764705883
 40
0.3529411764705883
 40
0.411764705882353
 40
0.411764705882353
 40
0.411764705882353
 40
0.411764705882353
 40
0.4705882352941177
 40
0.4705882352941177
 40
0.4705882352941177
 40
0.4705882352941177
 40
0.5294117647058824
 40
0.5294117647058824
 40
0.5294117647058824
 40
0.5294117647058824
 40
0.5882352941176471
 40
0.5882352941176471
 40
0.5882352941176471
 40
0.5882352941176471
 40
0.6470588235294118
 40
0.6470588235294118
 40
0.6470588235294118
 40
0.6470588235294118
 40
0.7058823529411765
 40
0.7058823529411765
 40
0.7058823529411765
 40
0.7058823529411765
 40
0.7647058823529412
 40
0.7647058823529412
 40
0.7647058823529412
 40
0.7647058823529412
 40
0.823529411764706
 40
0.823529411764706
 40
0.823529411764706
 40
0.823529411764706
 40
0.8823529411764707
 40
0.8823529411764707
 40
0.8823529411764707
 40
0.8823529411764707
 40
0.9411764705882354
 40
0.9411764705882354
 40
0.9411764705882354
 40
0.9411764705882354
 40
1.0
 40
1.0
 40
1.0
 40
1.0
 10
-1.34333
 20
-0.73675
 30
0.0
 10
-1.34333
 20
-0.72208
 30
0.0
 10
-1.34495
 20
-0.70623
 30
0.0
 10
-1.34664
 20
-0.69004
 30
0.0
 10
-1.34664
 20
-0.69004
 30
0.0
 10
-1.34822
 20
-0.67361
 30
0.0
 10
-1.34995
 20
-0.65676
 30
0.0
 10
-1.34995
 20
-0.64057
 30
0.0
 10
-1.34995
 20
-0.64057
 30
0.0
 10
-1.34995
 20
-0.63495
 30
0.0
 10
-1.34771
 20
-0.63016
 30
0.0
 10
-1.34726
 20
-0.62472
 30
0.0
 10
-1.34726
 20
-0.62472
 30
0.0
 10
-1.54273
 20
-0.65266
 30
0.0
 10
-1.59551
 20
-0.69469
 30
0.0
 10
-1.60288
 20
-0.82285
 30
0.0
 10
-1.60288
 20
-0.82285
 30
0.0
 10
-1.6199
 20
-0.75984
 30
0.0
 10
-1.60502
 20
-0.70161
 30
0.0
 10
-1.56516
 20
-0.66868
 30
0.0
 10
-1.56516
 20
-0.66868
 30
0.0
 10
-1.56516
 20
-0.66868
 30
0.0
 10
-1.66745
 20
-0.58458
 30
0.0
 10
-1.51734
 20
-0.44938
 30
0.0
 10
-1.51734
 20
-0.44938
 30
0.0
 10
-1.76587
 20
-0.41645
 30
0.0
 10
-1.90523
 20
-0.5892
 30
0.0
 10
-1.89854
 20
-0.84286
 30
0.0
 10
-1.89854
 20
-0.84286
 30
0.0
 10
-1.92951
 20
-0.72959
 30
0.0
 10
-2.03087
 20
-0.67019
 30
0.0
 10
-2.14421
 20
-0.61504
 30
0.0
 10
-2.14421
 20
-0.61504
 30
0.0
 10
-2.08127
 20
-0.70375
 30
0.0
 10
-2.15097
 20
-0.81816
 30
0.0
 10
-2.07014
 20
-0.92362
 30
0.0
 10
-2.07014
 20
-0.92362
 30
0.0
 10
-1.94054
 20
-1.073
 30
0.0
 10
-1.91532
 20
-1.01308
 30
0.0
 10
-1.83543
 20
-1.10414
 30
0.0
 10
-1.83543
 20
-1.10414
 30
0.0
 10
-1.83543
 20
-1.10414
 30
0.0
 10
-1.80914
 20
-0.99259
 30
0.0
 10
-1.83068
 20
-0.93805
 30
0.0
 10
-1.83068
 20
-0.93805
 30
0.0
 10
-1.76653
 20
-1.14765
 30
0.0
 10
-1.61856
 20
-1.20236
 30
0.0
 10
-1.4533
 20
-1.21273
 30
0.0
 10
-1.4533
 20
-1.21273
 30
0.0
 10
-1.45978
 20
-1.19244
 30
0.0
 10
-1.46456
 20
-1.17332
 30
0.0
 10
-1.46856
 20
-1.15499
 30
0.0
 10
-1.46856
 20
-1.15499
 30
0.0
 10
-1.60413
 20
-1.0906
 30
0.0
 10
-1.56633
 20
-0.94604
 30
0.0
 10
-1.51779
 20
-0.89602
 30
0.0
 10
-1.51779
 20
-0.89602
 30
0.0
 10
-1.52813
 20
-0.87931
 30
0.0
 10
-1.54211
 20
-0.86346
 30
0.0
 10
-1.56151
 20
-0.84813
 30
0.0
 10
-1.56151
 20
-0.84813
 30
0.0
 10
-1.52878
 20
-0.83391
 30
0.0
 10
-1.43428
 20
-0.76731
 30
0.0
 10
-1.35046
 20
-0.78581
 30
0.0
 10
-1.35046
 20
-0.78581
 30
0.0
 10
-1.33482
 20
-0.77238
 30
0.0
 10
-1.34333
 20
-0.7609
 30
0.0
 10
-1.34333
 20
-0.73675
 30
0.0
  0
SPLINE
  5
BF
330
1F
100
AcDbEntity
  8
Layer 1
100
AcDbSpline
210
0.0
220
0.0
230
1.0
 70
    11
 71
     3
 72
    48
 73
    44
 74
     0
 42
0.0000000001
 43
0.0000000001
 40
0.0
 40
0.0
 40
0.0
 40
0.0
 40
0.0909090909090909
 40
0.0909090909090909
 40
0.0909090909090909
 40
0.0909090909090909
 40
0.1818181818181818
 40
0.1818181818181818
 40
0.1818181818181818
 40
0.1818181818181818
 40
0.2727272727272727
 40
0.2727272727272727
 40
0.2727272727272727
 40
0.2727272727272727
 40
0.3636363636363636
 40
0.3636363636363636
 40
0.3636363636363636
 40
0.3636363636363636
 40
0.4545454545454546
 40
0.4545454545454546
 40
0.4545454545454546
 40
0.4545454545454546
 40
0.5454545454545455
 40
0.5454545454545455
 40
0.5454545454545455
 40
0.5454545454545455
 40
0.6363636363636365
 40
0.6363636363636365
 40
0.6363636363636365
 40
0.6363636363636365
 40
0.7272727272727274
 40
0.7272727272727274
 40
0.7272727272727274
 40
0.7272727272727274
 40
0.8181818181818183
 40
0.8181818181818183
 40
0.8181818181818183
 40
0.8181818181818183
 40
0.9090909090909093
 40
0.9090909090909093
 40
0.9090909090909093
 40
0.9090909090909093
 40
1.0
 40
1.0
 40
1.0
 40
1.0
 10
-1.32425
 20
-0.79332
 30
0.0
 10
-1.28711
 20
-0.80638
 30
0.0
 10
-1.24522
 20
-0.83105
 30
0.0
 10
-1.19633
 20
-0.87246
 30
0.0
 10
-1.19633
 20
-0.87246
 30
0.0
 10
-1.1924
 20
-0.82419
 30
0.0
 10
-1.17015
 20
-0.77562
 30
0.0
 10
-1.14579
 20
-0.71264
 30
0.0
 10
-1.14579
 20
-0.71264
 30
0.0
 10
-1.10848
 20
-0.73493
 30
0.0
 10
-1.08915
 20
-0.72752
 30
0.0
 10
-1.07589
 20
-0.76359
 30
0.0
 10
-1.07589
 20
-0.76359
 30
0.0
 10
-1.07785
 20
-0.64839
 30
0.0
 10
-0.94101
 20
-0.52197
 30
0.0
 10
-0.94101
 20
-0.52197
 30
0.0
 10
-0.94101
 20
-0.52197
 30
0.0
 10
-0.94101
 20
-0.52197
 30
0.0
 10
-0.94101
 20
0.09333
 30
0.0
 10
-0.94101
 20
0.09333
 30
0.0
 10
-0.94101
 20
0.09333
 30
0.0
 10
-0.95989
 20
0.12769
 30
0.0
 10
-0.97602
 20
0.17895
 30
0.0
 10
-1.01508
 20
0.20832
 30
0.0
 10
-1.01508
 20
0.20832
 30
0.0
 10
-1.08298
 20
-0.08729
 30
0.0
 10
-1.06824
 20
-0.25749
 30
0.0
 10
-1.11175
 20
-0.41264
 30
0.0
 10
-1.11175
 20
-0.41264
 30
0.0
 10
-1.06841
 20
-0.25828
 30
0.0
 10
-1.10035
 20
-0.07207
 30
0.0
 10
-1.03379
 20
0.22124
 30
0.0
 10
-1.03379
 20
0.22124
 30
0.0
 10
-1.04278
 20
0.22693
 30
0.0
 10
-1.05222
 20
0.23201
 30
0.0
 10
-1.06183
 20
0.23647
 30
0.0
 10
-1.06183
 20
0.23647
 30
0.0
 10
-1.18682
 20
0.16098
 30
0.0
 10
-1.16401
 20
-0.47644
 30
0.0
 10
-1.32087
 20
-0.61455
 30
0.0
 10
-1.32087
 20
-0.61455
 30
0.0
 10
-1.33651
 20
-0.68577
 30
0.0
 10
-1.30237
 20
-0.74561
 30
0.0
 10
-1.32425
 20
-0.79332
 30
0.0
  0
SPLINE
  5
C0
330
1F
100
AcDbEntity
  8
Layer 1
100
AcDbSpline
210
0.0
220
0.0
230
1.0
 70
    11
 71
     3
 72
    36
 73
    32
 74
     0
 42
0.0000000001
 43
0.0000000001
 40
0.0
 40
0.0
 40
0.0
 40
0.0
 40
0.125
 40
0.125
 40
0.125
 40
0.125
 40
0.25
 40
0.25
 40
0.25
 40
0.25
 40
0.375
 40
0.375
 40
0.375
 40
0.375
 40
0.5
 40
0.5
 40
0.5
 40
0.5
 40
0.625
 40
0.625
 40
0.625
 40
0.625
 40
0.75
 40
0.75
 40
0.75
 40
0.75
 40
0.875
 40
0.875
 40
0.875
 40
0.875
 40
1.0
 40
1.0
 40
1.0
 40
1.0
 10
-1.12653
 20
-0.76001
 30
0.0
 10
-1.19926
 20
-0.88707
 30
0.0
 10
-1.17273
 20
-1.01619
 30
0.0
 10
-1.10135
 20
-1.11509
 30
0.0
 10
-1.10135
 20
-1.11509
 30
0.0
 10
-1.14513
 20
-1.0835
 30
0.0
 10
-1.19278
 20
-1.00526
 30
0.0
 10
-1.19402
 20
-0.90367
 30
0.0
 10
-1.19402
 20
-0.90367
 30
0.0
 10
-1.34647
 20
-0.75326
 30
0.0
 10
-1.42911
 20
-0.81317
 30
0.0
 10
-1.52385
 20
-0.84851
 30
0.0
 10
-1.52385
 20
-0.84851
 30
0.0
 10
-1.52385
 20
-0.84851
 30
0.0
 10
-1.44314
 20
-0.88982
 30
0.0
 10
-1.4409
 20
-1.13346
 30
0.0
 10
-1.4409
 20
-1.13346
 30
0.0
 10
-1.44241
 20
-1.40521
 30
0.0
 10
-0.93223
 20
-1.31157
 30
0.0
 10
-0.92582
 20
-1.14765
 30
0.0
 10
-0.92582
 20
-1.14765
 30
0.0
 10
-0.92582
 20
-1.14765
 30
0.0
 10
-0.92582
 20
-0.55952
 30
0.0
 10
-0.92582
 20
-0.55952
 30
0.0
 10
-0.92582
 20
-0.55952
 30
0.0
 10
-0.92582
 20
-0.55952
 30
0.0
 10
-1.05115
 20
-0.65159
 30
0.0
 10
-1.07065
 20
-0.81486
 30
0.0
 10
-1.07065
 20
-0.81486
 30
0.0
 10
-1.07065
 20
-0.81486
 30
0.0
 10
-1.12653
 20
-0.76001
 30
0.0
 10
-1.12653
 20
-0.76001
 30
0.0
  0
SPLINE
  5
C1
330
1F
100
AcDbEntity
  8
Layer 1
100
AcDbSpline
210
0.0
220
0.0
230
1.0
 70
    11
 71
     3
 72
    92
 73
    88
 74
     0
 42
0.0000000001
 43
0.0000000001
 40
0.0
 40
0.0
 40
0.0
 40
0.0
 40
0.0454545454545455
 40
0.0454545454545455
 40
0.0454545454545455
 40
0.0454545454545455
 40
0.0909090909090909
 40
0.0909090909090909
 40
0.0909090909090909
 40
0.0909090909090909
 40
0.1363636363636364
 40
0.1363636363636364
 40
0.1363636363636364
 40
0.1363636363636364
 40
0.1818181818181818
 40
0.1818181818181818
 40
0.1818181818181818
 40
0.1818181818181818
 40
0.2272727272727273
 40
0.2272727272727273
 40
0.2272727272727273
 40
0.2272727272727273
 40
0.2727272727272728
 40
0.2727272727272728
 40
0.2727272727272728
 40
0.2727272727272728
 40
0.3181818181818182
 40
0.3181818181818182
 40
0.3181818181818182
 40
0.3181818181818182
 40
0.3636363636363637
 40
0.3636363636363637
 40
0.3636363636363637
 40
0.3636363636363637
 40
0.4090909090909092
 40
0.4090909090909092
 40
0.4090909090909092
 40
0.4090909090909092
 40
0.4545454545454546
 40
0.4545454545454546
 40
0.4545454545454546
 40
0.4545454545454546
 40
0.5000000000000001
 40
0.5000000000000001
 40
0.5000000000000001
 40
0.5000000000000001
 40
0.5454545454545455
 40
0.5454545454545455
 40
0.5454545454545455
 40
0.5454545454545455
 40
0.5909090909090909
 40
0.5909090909090909
 40
0.5909090909090909
 40
0.5909090909090909
 40
0.6363636363636364
 40
0.6363636363636364
 40
0.6363636363636364
 40
0.6363636363636364
 40
0.6818181818181818
 40
0.6818181818181818
 40
0.6818181818181818
 40
0.6818181818181818
 40
0.7272727272727272
 40
0.7272727272727272
 40
0.7272727272727272
 40
0.7272727272727272
 40
0.7727272727272726
 40
0.7727272727272726
 40
0.7727272727272726
 40
0.7727272727272726
 40
0.818181818181818
 40
0.818181818181818
 40
0.818181818181818
 40
0.818181818181818
 40
0.8636363636363634
 40
0.8636363636363634
 40
0.8636363636363634
 40
0.8636363636363634
 40
0.9090909090909088
 40
0.9090909090909088
 40
0.9090909090909088
 40
0.9090909090909088
 40
0.9545454545454543
 40
0.9545454545454543
 40
0.9545454545454543
 40
0.9545454545454543
 40
1.0
 40
1.0
 40
1.0
 40
1.0
 10
-1.45041
 20
-1.22137
 30
0.0
 10
-1.55224
 20
-1.27595
 30
0.0
 10
-1.50577
 20
-1.43001
 30
0.0
 10
-1.77827
 20
-1.41055
 30
0.0
 10
-1.77827
 20
-1.41055
 30
0.0
 10
-1.66183
 20
-1.52937
 30
0.0
 10
-1.50918
 20
-1.33124
 30
0.0
 10
-1.42825
 20
-1.37068
 30
0.0
 10
-1.42825
 20
-1.37068
 30
0.0
 10
-1.63496
 20
-1.71684
 30
0.0
 10
-1.77293
 20
-1.93412
 30
0.0
 10
-2.01626
 20
-2.16625
 30
0.0
 10
-2.01626
 20
-2.16625
 30
0.0
 10
-2.07039
 20
-2.22802
 30
0.0
 10
-2.299
 20
-2.1748
 30
0.0
 10
-2.36925
 20
-2.31491
 30
0.0
 10
-2.36925
 20
-2.31491
 30
0.0
 10
-2.36925
 20
-2.31491
 30
0.0
 10
-2.2795
 20
-2.11416
 30
0.0
 10
-2.333
 20
-1.99792
 30
0.0
 10
-2.333
 20
-1.99792
 30
0.0
 10
-2.39663
 20
-2.00096
 30
0.0
 10
-2.45165
 20
-1.98218
 30
0.0
 10
-2.45165
 20
-1.98218
 30
0.0
 10
-2.45165
 20
-1.98218
 30
0.0
 10
-2.45165
 20
-1.98218
 30
0.0
 10
-2.48345
 20
-2.17914
 30
0.0
 10
-2.71389
 20
-2.18307
 30
0.0
 10
-2.71389
 20
-2.18307
 30
0.0
 10
-2.56906
 20
-2.39191
 30
0.0
 10
-2.53241
 20
-2.20143
 30
0.0
 10
-2.40073
 20
-2.07509
 30
0.0
 10
-2.40073
 20
-2.07509
 30
0.0
 10
-2.36284
 20
-2.39625
 30
0.0
 10
-2.76447
 20
-2.43497
 30
0.0
 10
-2.62515
 20
-2.81541
 30
0.0
 10
-2.62515
 20
-2.81541
 30
0.0
 10
-2.5865
 20
-2.65397
 30
0.0
 10
-2.51949
 20
-2.66858
 30
0.0
 10
-2.51949
 20
-2.66858
 30
0.0
 10
-2.51949
 20
-2.66858
 30
0.0
 10
-2.57557
 20
-3.09209
 30
0.0
 10
-2.05864
 20
-3.13756
 30
0.0
 10
-2.13129
 20
-2.81765
 30
0.0
 10
-2.13129
 20
-2.81765
 30
0.0
 10
-2.17873
 20
-2.74244
 30
0.0
 10
-2.17563
 20
-2.89224
 30
0.0
 10
-2.27158
 20
-2.87952
 30
0.0
 10
-2.27158
 20
-2.87952
 30
0.0
 10
-2.40938
 20
-2.87856
 30
0.0
 10
-2.56104
 20
-2.54814
 30
0.0
 10
-2.30034
 20
-2.35852
 30
0.0
 10
-2.30034
 20
-2.35852
 30
0.0
 10
-2.37476
 20
-2.48661
 30
0.0
 10
-2.31413
 20
-2.50611
 30
0.0
 10
-2.35843
 20
-2.5807
 30
0.0
 10
-2.35843
 20
-2.5807
 30
0.0
 10
-2.00999
 20
-2.46598
 30
0.0
 10
-2.1675
 20
-2.26695
 30
0.0
 10
-2.038
 20
-2.24387
 30
0.0
 10
-2.038
 20
-2.24387
 30
0.0
 10
-1.83781
 20
-2.20711
 30
0.0
 10
-1.90116
 20
-2.07802
 30
0.0
 10
-1.79729
 20
-1.98838
 30
0.0
 10
-1.79729
 20
-1.98838
 30
0.0
 10
-1.69353
 20
-1.89867
 30
0.0
 10
-1.57226
 20
-1.93774
 30
0.0
 10
-1.69638
 20
-2.0937
 30
0.0
 10
-1.69638
 20
-2.0937
 30
0.0
 10
-1.86929
 20
-2.35815
 30
0.0
 10
-2.01619
 20
-2.25252
 30
0.0
 10
-2.03363
 20
-2.51448
 30
0.0
 10
-2.03363
 20
-2.51448
 30
0.0
 10
-1.98023
 20
-2.45839
 30
0.0
 10
-1.94109
 20
-2.50952
 30
0.0
 10
-1.90609
 20
-2.46239
 30
0.0
 10
-1.90609
 20
-2.46239
 30
0.0
 10
-1.91015
 20
-2.53663
 30
0.0
 10
-1.94536
 20
-2.71581
 30
0.0
 10
-1.67358
 20
-2.65983
 30
0.0
 10
-1.67358
 20
-2.65983
 30
0.0
 10
-2.00651
 20
-2.42839
 30
0.0
 10
-1.48751
 20
-2.07919
 30
0.0
 10
-1.32132
 20
-1.3258
 30
0.0
 10
-1.32132
 20
-1.3258
 30
0.0
 10
-1.3803
 20
-1.30898
 30
0.0
 10
-1.42825
 20
-1.27567
 30
0.0
 10
-1.45041
 20
-1.22137
 30
0.0
  0
ENDSEC
  0
SECTION
  2
OBJECTS
  0
DICTIONARY
  5
C
330
0
100
AcDbDictionary
281
     1
  3
ACAD_GROUP
350
D
  3
ACAD_LAYOUT
350
1A
  3
ACAD_MLEADERSTYLE
350
C3
  3
ACAD_MLINESTYLE
350
17
  3
ACAD_PLOTSETTINGS
350
19
  3
ACAD_PLOTSTYLENAME
350
E
  3
ACAD_SCALELIST
350
3B
  3
ACAD_TABLESTYLE
350
C2
  3
ACAD_VISUALSTYLE
350
2A
  0
DICTIONARY
  5
D
102
{ACAD_REACTORS
330
C
102
}
330
C
100
AcDbDictionary
281
     1
  0
DICTIONARY
  5
1A
102
{ACAD_REACTORS
330
C
102
}
330
C
100
AcDbDictionary
281
     1
  3
Layout1
350
1E
  3
Layout2
350
26
  3
Model
350
22
  0
DICTIONARY
  5
C3
102
{ACAD_REACTORS
330
C
102
}
330
C
100
AcDbDictionary
281
     1
  0
DICTIONARY
  5
17
102
{ACAD_REACTORS
330
C
102
}
330
C
100
AcDbDictionary
281
     1
  3
Standard
350
18
  0
DICTIONARY
  5
19
102
{ACAD_REACTORS
330
C
102
}
330
C
100
AcDbDictionary
281
     1
  0
ACDBDICTIONARYWDFLT
  5
E
102
{ACAD_REACTORS
330
C
102
}
330
C
100
AcDbDictionary
281
     1
  3
Normal
350
F
100
AcDbDictionaryWithDefault
340
F
  0
DICTIONARY
  5
3B
102
{ACAD_REACTORS
330
C
102
}
330
C
100
AcDbDictionary
281
     1
  3
A0
350
3C
  3
A1
350
3D
  3
A2
350
3E
  3
A3
350
3F
  3
A4
350
40
  3
A5
350
41
  3
A6
350
42
  3
A7
350
43
  3
A8
350
44
  3
A9
350
45
  3
B0
350
46
  3
B1
350
47
  3
B2
350
48
  3
B3
350
49
  3
B4
350
4A
  3
B5
350
4B
  3
B6
350
4C
  3
B7
350
4D
  3
B8
350
4E
  3
B9
350
4F
  3
C0
350
50
  3
C1
350
51
  3
C2
350
52
  3
C3
350
53
  3
C4
350
54
  3
C5
350
55
  3
C6
350
56
  3
C7
350
57
  3
C8
350
58
  3
C9
350
59
  3
D0
350
5A
  3
D1
350
5B
  3
D2
350
5C
  0
DICTIONARY
  5
C2
102
{ACAD_REACTORS
330
C
102
}
330
C
100
AcDbDictionary
281
     1
  0
DICTIONARY
  5
2A
102
{ACAD_REACTORS
330
C
102
}
330
C
100
AcDbDictionary
281
     1
  3
2dWireframe
350
2F
  3
3D Hidden
350
31
  3
3dWireframe
350
30
  3
Basic
350
32
  3
Brighten
350
36
  3
ColorChange
350
3A
  3
Conceptual
350
34
  3
Dim
350
35
  3
Facepattern
350
39
  3
Flat
350
2B
  3
FlatWithEdges
350
2C
  3
Gouraud
350
2D
  3
GouraudWithEdges
350
2E
  3
Linepattern
350
38
  3
Realistic
350
33
  3
Thicken
350
37
  0
LAYOUT
  5
1E
102
{ACAD_REACTORS
330
1A
102
}
330
1A
100
AcDbPlotSettings
  1

  2
none_device
  4

  6

 40
0.0
 41
0.0
 42
0.0
 43
0.0
 44
0.0
 45
0.0
 46
0.0
 47
0.0
 48
0.0
 49
0.0
140
0.0
141
0.0
142
1.0
143
1.0
 70
   688
 72
     0
 73
     0
 74
     5
  7

 75
    16
 76
     0
 77
     2
 78
   300
147
1.0
148
0.0
149
0.0
100
AcDbLayout
  1
Layout1
 70
     1
 71
     1
 10
0.0
 20
0.0
 11
12.0
 21
9.0
 12
0.0
 22
0.0
 32
0.0
 14
1.000000000000000E+20
 24
1.000000000000000E+20
 34
1.000000000000000E+20
 15
-1.000000000000000E+20
 25
-1.000000000000000E+20
 35
-1.000000000000000E+20
146
0.0
 13
0.0
 23
0.0
 33
0.0
 16
1.0
 26
0.0
 36
0.0
 17
0.0
 27
1.0
 37
0.0
 76
     0
330
1B
  0
LAYOUT
  5
26
102
{ACAD_REACTORS
330
1A
102
}
330
1A
100
AcDbPlotSettings
  1

  2
none_device
  4

  6

 40
0.0
 41
0.0
 42
0.0
 43
0.0
 44
0.0
 45
0.0
 46
0.0
 47
0.0
 48
0.0
 49
0.0
140
0.0
141
0.0
142
1.0
143
1.0
 70
   688
 72
     0
 73
     0
 74
     5
  7

 75
    16
 76
     0
 77
     2
 78
   300
147
1.0
148
0.0
149
0.0
100
AcDbLayout
  1
Layout2
 70
     1
 71
     2
 10
0.0
 20
0.0
 11
0.0
 21
0.0
 12
0.0
 22
0.0
 32
0.0
 14
0.0
 24
0.0
 34
0.0
 15
0.0
 25
0.0
 35
0.0
146
0.0
 13
0.0
 23
0.0
 33
0.0
 16
1.0
 26
0.0
 36
0.0
 17
0.0
 27
1.0
 37
0.0
 76
     0
330
23
  0
LAYOUT
  5
22
102
{ACAD_REACTORS
330
1A
102
}
330
1A
100
AcDbPlotSettings
  1

  2
none_device
  4

  6

 40
0.0
 41
0.0
 42
0.0
 43
0.0
 44
0.0
 45
0.0
 46
0.0
 47
0.0
 48
0.0
 49
0.0
140
0.0
141
0.0
142
1.0
143
1.0
 70
  1712
 72
     0
 73
     0
 74
     0
  7

 75
     0
 76
     0
 77
     2
 78
   300
147
1.0
148
0.0
149
0.0
100
AcDbLayout
  1
Model
 70
     1
 71
     0
 10
0.0
 20
0.0
 11
12.0
 21
9.0
 12
0.0
 22
0.0
 32
0.0
 14
-4.84348
 24
-6.38884
 34
0.0
 15
2.99184
 25
3.24559
 35
0.0
146
0.0
 13
0.0
 23
0.0
 33
0.0
 16
1.0
 26
0.0
 36
0.0
 17
0.0
 27
1.0
 37
0.0
 76
     0
330
1F
331
29
  0
MLINESTYLE
  5
18
102
{ACAD_REACTORS
330
17
102
}
330
17
100
AcDbMlineStyle
  2
Standard
 70
     0
  3

 62
   256
 51
90.0
 52
90.0
 71
     2
 49
0.5
 62
   256
  6
BYLAYER
 49
-0.5
 62
   256
  6
BYLAYER
  0
ACDBPLACEHOLDER
  5
F
102
{ACAD_REACTORS
330
E
102
}
330
E
  0
SCALE
  5
3C
102
{ACAD_REACTORS
330
3B
102
}
330
3B
100
AcDbScale
 70
     0
300
1:1
140
1.0
141
1.0
290
     1
  0
SCALE
  5
3D
102
{ACAD_REACTORS
330
3B
102
}
330
3B
100
AcDbScale
 70
     0
300
1:2
140
1.0
141
2.0
290
     0
  0
SCALE
  5
3E
102
{ACAD_REACTORS
330
3B
102
}
330
3B
100
AcDbScale
 70
     0
300
1:4
140
1.0
141
4.0
290
     0
  0
SCALE
  5
3F
102
{ACAD_REACTORS
330
3B
102
}
330
3B
100
AcDbScale
 70
     0
300
1:5
140
1.0
141
5.0
290
     0
  0
SCALE
  5
40
102
{ACAD_REACTORS
330
3B
102
}
330
3B
100
AcDbScale
 70
     0
300
1:8
140
1.0
141
8.0
290
     0
  0
SCALE
  5
41
102
{ACAD_REACTORS
330
3B
102
}
330
3B
100
AcDbScale
 70
     0
300
1:10
140
1.0
141
10.0
290
     0
  0
SCALE
  5
42
102
{ACAD_REACTORS
330
3B
102
}
330
3B
100
AcDbScale
 70
     0
300
1:16
140
1.0
141
16.0
290
     0
  0
SCALE
  5
43
102
{ACAD_REACTORS
330
3B
102
}
330
3B
100
AcDbScale
 70
     0
300
1:20
140
1.0
141
20.0
290
     0
  0
SCALE
  5
44
102
{ACAD_REACTORS
330
3B
102
}
330
3B
100
AcDbScale
 70
     0
300
1:30
140
1.0
141
30.0
290
     0
  0
SCALE
  5
45
102
{ACAD_REACTORS
330
3B
102
}
330
3B
100
AcDbScale
 70
     0
300
1:40
140
1.0
141
40.0
290
     0
  0
SCALE
  5
46
102
{ACAD_REACTORS
330
3B
102
}
330
3B
100
AcDbScale
 70
     0
300
1:50
140
1.0
141
50.0
290
     0
  0
SCALE
  5
47
102
{ACAD_REACTORS
330
3B
102
}
330
3B
100
AcDbScale
 70
     0
300
1:100
140
1.0
141
100.0
290
     0
  0
SCALE
  5
48
102
{ACAD_REACTORS
330
3B
102
}
330
3B
100
AcDbScale
 70
     0
300
2:1
140
2.0
141
1.0
290
     0
  0
SCALE
  5
49
102
{ACAD_REACTORS
330
3B
102
}
330
3B
100
AcDbScale
 70
     0
300
4:1
140
4.0
141
1.0
290
     0
  0
SCALE
  5
4A
102
{ACAD_REACTORS
330
3B
102
}
330
3B
100
AcDbScale
 70
     0
300
8:1
140
8.0
141
1.0
290
     0
  0
SCALE
  5
4B
102
{ACAD_REACTORS
330
3B
102
}
330
3B
100
AcDbScale
 70
     0
300
10:1
140
10.0
141
1.0
290
     0
  0
SCALE
  5
4C
102
{ACAD_REACTORS
330
3B
102
}
330
3B
100
AcDbScale
 70
     0
300
100:1
140
100.0
141
1.0
290
     0
  0
SCALE
  5
4D
102
{ACAD_REACTORS
330
3B
102
}
330
3B
100
AcDbScale
 70
     0
300
1/128\" = 1\'-0\"
140
0.0078125
141
12.0
290
     0
  0
SCALE
  5
4E
102
{ACAD_REACTORS
330
3B
102
}
330
3B
100
AcDbScale
 70
     0
300
1/64\" = 1\'-0\"
140
0.015625
141
12.0
290
     0
  0
SCALE
  5
4F
102
{ACAD_REACTORS
330
3B
102
}
330
3B
100
AcDbScale
 70
     0
300
1/32\" = 1\'-0\"
140
0.03125
141
12.0
290
     0
  0
SCALE
  5
50
102
{ACAD_REACTORS
330
3B
102
}
330
3B
100
AcDbScale
 70
     0
300
1/16\" = 1\'-0\"
140
0.0625
141
12.0
290
     0
  0
SCALE
  5
51
102
{ACAD_REACTORS
330
3B
102
}
330
3B
100
AcDbScale
 70
     0
300
3/32\" = 1\'-0\"
140
0.09375
141
12.0
290
     0
  0
SCALE
  5
52
102
{ACAD_REACTORS
330
3B
102
}
330
3B
100
AcDbScale
 70
     0
300
1/8\" = 1\'-0\"
140
0.125
141
12.0
290
     0
  0
SCALE
  5
53
102
{ACAD_REACTORS
330
3B
102
}
330
3B
100
AcDbScale
 70
     0
300
3/16\" = 1\'-0\"
140
0.1875
141
12.0
290
     0
  0
SCALE
  5
54
102
{ACAD_REACTORS
330
3B
102
}
330
3B
100
AcDbScale
 70
     0
300
1/4\" = 1\'-0\"
140
0.25
141
12.0
290
     0
  0
SCALE
  5
55
102
{ACAD_REACTORS
330
3B
102
}
330
3B
100
AcDbScale
 70
     0
300
3/8\" = 1\'-0\"
140
0.375
141
12.0
290
     0
  0
SCALE
  5
56
102
{ACAD_REACTORS
330
3B
102
}
330
3B
100
AcDbScale
 70
     0
300
1/2\" = 1\'-0\"
140
0.5
141
12.0
290
     0
  0
SCALE
  5
57
102
{ACAD_REACTORS
330
3B
102
}
330
3B
100
AcDbScale
 70
     0
300
3/4\" = 1\'-0\"
140
0.75
141
12.0
290
     0
  0
SCALE
  5
58
102
{ACAD_REACTORS
330
3B
102
}
330
3B
100
AcDbScale
 70
     0
300
1\" = 1\'-0\"
140
1.0
141
12.0
290
     0
  0
SCALE
  5
59
102
{ACAD_REACTORS
330
3B
102
}
330
3B
100
AcDbScale
 70
     0
300
1-1/2\" = 1\'-0\"
140
1.5
141
12.0
290
     0
  0
SCALE
  5
5A
102
{ACAD_REACTORS
330
3B
102
}
330
3B
100
AcDbScale
 70
     0
300
3\" = 1\'-0\"
140
3.0
141
12.0
290
     0
  0
SCALE
  5
5B
102
{ACAD_REACTORS
330
3B
102
}
330
3B
100
AcDbScale
 70
     0
300
6\" = 1\'-0\"
140
6.0
141
12.0
290
     0
  0
SCALE
  5
5C
102
{ACAD_REACTORS
330
3B
102
}
330
3B
100
AcDbScale
 70
     0
300
1\'-0\" = 1\'-0\"
140
12.0
141
12.0
290
     0
  0
VISUALSTYLE
  5
2F
102
{ACAD_REACTORS
330
2A
102
}
330
2A
100
AcDbVisualStyle
  2
2dWireframe
 70
     4
 71
     0
 72
     2
 73
     0
 90
        0
 40
-0.6
 41
-30.0
 62
     5
 63
     7
421
 16777215
 74
     1
 91
        4
 64
     7
 65
   257
 75
     1
175
     1
 42
1.0
 92
        0
 66
   257
 43
1.0
 76
     1
 77
     6
 78
     2
 67
     7
 79
     5
170
     0
171
     0
290
     0
174
     0
 93
        1
 44
0.0
173
     0
291
     0
 45
0.0
  0
VISUALSTYLE
  5
31
102
{ACAD_REACTORS
330
2A
102
}
330
2A
100
AcDbVisualStyle
  2
3D Hidden
 70
     6
 71
     1
 72
     2
 73
     2
 90
        0
 40
-0.6
 41
-30.0
 62
     5
 63
     7
421
 16777215
 74
     2
 91
        2
 64
     7
 65
   257
 75
     2
175
     1
 42
40.0
 92
        0
 66
   257
 43
1.0
 76
     1
 77
     6
 78
     2
 67
     7
 79
     3
170
     0
171
     0
290
     0
174
     0
 93
        1
 44
0.0
173
     0
291
     0
 45
0.0
  0
VISUALSTYLE
  5
30
102
{ACAD_REACTORS
330
2A
102
}
330
2A
100
AcDbVisualStyle
  2
3dWireframe
 70
     5
 71
     0
 72
     2
 73
     0
 90
        0
 40
-0.6
 41
-30.0
 62
     5
 63
     7
421
 16777215
 74
     1
 91
        4
 64
     7
 65
   257
 75
     1
175
     1
 42
1.0
 92
        0
 66
   257
 43
1.0
 76
     1
 77
     6
 78
     2
 67
     7
 79
     5
170
     0
171
     0
290
     0
174
     0
 93
        1
 44
0.0
173
     0
291
     0
 45
0.0
  0
VISUALSTYLE
  5
32
102
{ACAD_REACTORS
330
2A
102
}
330
2A
100
AcDbVisualStyle
  2
Basic
 70
     7
 71
     1
 72
     0
 73
     1
 90
        0
 40
-0.6
 41
-30.0
 62
     5
 63
     7
421
 16777215
 74
     0
 91
        4
 64
     7
 65
   257
 75
     1
175
     1
 42
1.0
 92
        8
 66
     7
 43
1.0
 76
     1
 77
     6
 78
     2
 67
     7
 79
     5
170
     0
171
     0
290
     0
174
     0
 93
        1
 44
0.0
173
     0
291
     1
 45
0.0
  0
VISUALSTYLE
  5
36
102
{ACAD_REACTORS
330
2A
102
}
330
2A
100
AcDbVisualStyle
  2
Brighten
 70
    12
 71
     2
 72
     2
 73
     0
 90
        0
 40
-0.6
 41
-30.0
 62
     5
 63
     7
421
 16777215
 74
     1
 91
        4
 64
     7
 65
   257
 75
     1
175
     1
 42
1.0
 92
        8
 66
     7
 43
1.0
 76
     1
 77
     6
 78
     2
 67
     7
 79
     5
170
     0
171
     0
290
     0
174
     0
 93
        1
 44
50.0
173
     0
291
     1
 45
0.0
  0
VISUALSTYLE
  5
3A
102
{ACAD_REACTORS
330
2A
102
}
330
2A
100
AcDbVisualStyle
  2
ColorChange
 70
    16
 71
     2
 72
     2
 73
     3
 90
        0
 40
-0.6
 41
-30.0
 62
     5
 63
     8
421
  8421504
 74
     1
 91
        4
 64
     7
 65
   257
 75
     1
175
     1
 42
1.0
 92
        8
 66
     8
424
  8421504
 43
1.0
 76
     1
 77
     6
 78
     2
 67
     7
 79
     5
170
     0
171
     0
290
     0
174
     0
 93
        1
 44
0.0
173
     0
291
     1
 45
0.0
  0
VISUALSTYLE
  5
34
102
{ACAD_REACTORS
330
2A
102
}
330
2A
100
AcDbVisualStyle
  2
Conceptual
 70
     9
 71
     3
 72
     2
 73
     0
 90
        0
 40
-0.6
 41
-30.0
 62
     5
 63
     7
421
 16777215
 74
     2
 91
        2
 64
     7
 65
   257
 75
     1
175
     1
 42
40.0
 92
        8
 66
     7
 43
1.0
 76
     1
 77
     6
 78
     2
 67
     7
 79
     3
170
     0
171
     0
290
     0
174
     0
 93
        1
 44
0.0
173
     0
291
     0
 45
0.0
  0
VISUALSTYLE
  5
35
102
{ACAD_REACTORS
330
2A
102
}
330
2A
100
AcDbVisualStyle
  2
Dim
 70
    11
 71
     2
 72
     2
 73
     0
 90
        0
 40
-0.6
 41
-30.0
 62
     5
 63
     7
421
 16777215
 74
     1
 91
        4
 64
     7
 65
   257
 75
     1
175
     1
 42
1.0
 92
        8
 66
     7
 43
1.0
 76
     1
 77
     6
 78
     2
 67
     7
 79
     5
170
     0
171
     0
290
     0
174
     0
 93
        1
 44
-50.0
173
     0
291
     1
 45
0.0
  0
VISUALSTYLE
  5
39
102
{ACAD_REACTORS
330
2A
102
}
330
2A
100
AcDbVisualStyle
  2
Facepattern
 70
    15
 71
     2
 72
     2
 73
     0
 90
        0
 40
-0.6
 41
-30.0
 62
     5
 63
     7
421
 16777215
 74
     1
 91
        4
 64
     7
 65
   257
 75
     1
175
     1
 42
1.0
 92
        8
 66
     7
 43
1.0
 76
     1
 77
     6
 78
     2
 67
     7
 79
     5
170
     0
171
     0
290
     0
174
     0
 93
        1
 44
0.0
173
     0
291
     1
 45
0.0
  0
VISUALSTYLE
  5
2B
102
{ACAD_REACTORS
330
2A
102
}
330
2A
100
AcDbVisualStyle
  2
Flat
 70
     0
 71
     2
 72
     1
 73
     1
 90
        2
 40
-0.6
 41
30.0
 62
     5
 63
     7
421
 16777215
 74
     0
 91
        4
 64
     7
 65
   257
 75
     1
175
     1
 42
1.0
 92
        8
 66
     7
 43
1.0
 76
     1
 77
     6
 78
     2
 67
     7
 79
     5
170
     0
171
     0
290
     0
174
     0
 93
       13
 44
0.0
173
     0
291
     1
 45
0.0
  0
VISUALSTYLE
  5
2C
102
{ACAD_REACTORS
330
2A
102
}
330
2A
100
AcDbVisualStyle
  2
FlatWithEdges
 70
     1
 71
     2
 72
     1
 73
     1
 90
        2
 40
-0.6
 41
30.0
 62
     5
 63
     7
421
 16777215
 74
     1
 91
        4
 64
     7
 65
   257
 75
     1
175
     1
 42
1.0
 92
        0
 66
   257
 43
1.0
 76
     1
 77
     6
 78
     2
 67
     7
 79
     5
170
     0
171
     0
290
     0
174
     0
 93
       13
 44
0.0
173
     0
291
     1
 45
0.0
  0
VISUALSTYLE
  5
2D
102
{ACAD_REACTORS
330
2A
102
}
330
2A
100
AcDbVisualStyle
  2
Gouraud
 70
     2
 71
     2
 72
     2
 73
     1
 90
        2
 40
-0.6
 41
30.0
 62
     5
 63
     7
421
 16777215
 74
     0
 91
        4
 64
     7
 65
   257
 75
     1
175
     1
 42
1.0
 92
        0
 66
     7
 43
1.0
 76
     1
 77
     6
 78
     2
 67
     7
 79
     5
170
     0
171
     0
290
     0
174
     0
 93
       13
 44
0.0
173
     0
291
     1
 45
0.0
  0
VISUALSTYLE
  5
2E
102
{ACAD_REACTORS
330
2A
102
}
330
2A
100
AcDbVisualStyle
  2
GouraudWithEdges
 70
     3
 71
     2
 72
     2
 73
     1
 90
        2
 40
-0.6
 41
30.0
 62
     5
 63
     7
421
 16777215
 74
     1
 91
        4
 64
     7
 65
   257
 75
     1
175
     1
 42
1.0
 92
        0
 66
   257
 43
1.0
 76
     1
 77
     6
 78
     2
 67
     7
 79
     5
170
     0
171
     0
290
     0
174
     0
 93
       13
 44
0.0
173
     0
291
     1
 45
0.0
  0
VISUALSTYLE
  5
38
102
{ACAD_REACTORS
330
2A
102
}
330
2A
100
AcDbVisualStyle
  2
Linepattern
 70
    14
 71
     2
 72
     2
 73
     0
 90
        0
 40
-0.6
 41
-30.0
 62
     5
 63
     7
421
 16777215
 74
     1
 91
        4
 64
     7
 65
   257
 75
     7
175
     7
 42
1.0
 92
        8
 66
     7
 43
1.0
 76
     1
 77
     6
 78
     2
 67
     7
 79
     5
170
     0
171
     0
290
     0
174
     0
 93
        1
 44
0.0
173
     0
291
     1
 45
0.0
  0
VISUALSTYLE
  5
33
102
{ACAD_REACTORS
330
2A
102
}
330
2A
100
AcDbVisualStyle
  2
Realistic
 70
     8
 71
     2
 72
     2
 73
     0
 90
        0
 40
-0.6
 41
-30.0
 62
     5
 63
     7
421
 16777215
 74
     1
 91
        0
 64
     7
 65
   257
 75
     1
175
     1
 42
1.0
 92
        8
 66
     8
424
  7895160
 43
1.0
 76
     1
 77
     6
 78
     2
 67
     7
 79
     5
170
     0
171
     0
290
     0
174
     0
 93
       13
 44
0.0
173
     0
291
     0
 45
0.0
  0
VISUALSTYLE
  5
37
102
{ACAD_REACTORS
330
2A
102
}
330
2A
100
AcDbVisualStyle
  2
Thicken
 70
    13
 71
     2
 72
     2
 73
     0
 90
        0
 40
-0.6
 41
-30.0
 62
     5
 63
     7
421
 16777215
 74
     1
 91
        4
 64
     7
 65
   257
 75
     1
175
     1
 42
1.0
 92
       12
 66
     7
 43
1.0
 76
     1
 77
     6
 78
     2
 67
     7
 79
     5
170
     0
171
     0
290
     0
174
     0
 93
        1
 44
0.0
173
     0
291
     1
 45
0.0
  0
ENDSEC
  0
EOF
