0
SECTION
2
HEADER
9
$ACADVER
1
AC1006
9
$INSBASE
10
0.0
20
0.0
30
0.0
9
$EXTMIN
10
0
20
0
9
$EXTMAX
10
8.000
20
8.000
9
$LUNITS
70
2
9
$VIEWCTR
10
4.000
20
4.000
9
$VIEWSIZE
40
8.000
0
ENDSEC
0
SECTION
2
TABLES
0
TABLE
2
LAYER
70
9
0
LAYER
2
0
70
0
62
7
6
CONTINUOUS
0
LAYER
2
1
70
0
62
7
6
CONTINUOUS
0
LAYER
2
2
70
0
62
6
6
CONTINUOUS
0
LAYER
2
3
70
0
62
6
6
CONTINUOUS
0
ENDTAB
0
ENDSEC
0
SECTION
2
ENTITIES
0
POLYLINE
8
1
6
CONTINUOUS
66
1
70
1
0
VERTEX
8
1
10
4.551
20
2.641
0
VERTEX
8
1
10
4.576
20
2.620
0
VERTEX
8
1
10
4.629
20
2.591
0
VERTEX
8
1
10
4.680
20
2.581
0
VERTEX
8
1
10
4.755
20
2.591
0
VERTEX
8
1
10
4.799
20
2.606
0
VERTEX
8
1
10
4.817
20
2.595
0
VERTEX
8
1
10
4.811
20
2.577
0
VERTEX
8
1
10
4.759
20
2.559
0
VERTEX
8
1
10
4.727
20
2.552
0
VERTEX
8
1
10
4.656
20
2.550
0
VERTEX
8
1
10
4.590
20
2.572
0
VERTEX
8
1
10
4.568
20
2.584
0
VERTEX
8
1
10
4.540
20
2.612
0
VERTEX
8
1
10
4.537
20
2.624
0
VERTEX
8
1
10
4.545
20
2.640
  0
SEQEND
0
POLYLINE
8
1
6
CONTINUOUS
66
1
70
1
0
VERTEX
8
1
10
4.753
20
2.661
0
VERTEX
8
1
10
4.766
20
2.648
0
VERTEX
8
1
10
4.754
20
2.636
0
VERTEX
8
1
10
4.737
20
2.631
0
VERTEX
8
1
10
4.662
20
2.625
0
VERTEX
8
1
10
4.651
20
2.628
0
VERTEX
8
1
10
4.640
20
2.645
0
VERTEX
8
1
10
4.651
20
2.658
0
VERTEX
8
1
10
4.739
20
2.662
  0
SEQEND
0
POLYLINE
8
1
6
CONTINUOUS
66
1
70
1
0
VERTEX
8
1
10
6.700
20
2.656
0
VERTEX
8
1
10
6.702
20
2.633
0
VERTEX
8
1
10
6.651
20
2.575
0
VERTEX
8
1
10
6.613
20
2.539
0
VERTEX
8
1
10
6.534
20
2.484
0
VERTEX
8
1
10
6.451
20
2.454
0
VERTEX
8
1
10
6.323
20
2.436
0
VERTEX
8
1
10
6.215
20
2.439
0
VERTEX
8
1
10
6.139
20
2.462
0
VERTEX
8
1
10
6.104
20
2.482
0
VERTEX
8
1
10
6.064
20
2.518
0
VERTEX
8
1
10
6.057
20
2.546
0
VERTEX
8
1
10
6.073
20
2.572
0
VERTEX
8
1
10
6.157
20
2.594
0
VERTEX
8
1
10
6.240
20
2.614
0
VERTEX
8
1
10
6.357
20
2.587
0
VERTEX
8
1
10
6.378
20
2.583
0
VERTEX
8
1
10
6.476
20
2.585
0
VERTEX
8
1
10
6.503
20
2.590
0
VERTEX
8
1
10
6.601
20
2.627
0
VERTEX
8
1
10
6.624
20
2.640
0
VERTEX
8
1
10
6.682
20
2.663
  0
SEQEND
0
POLYLINE
8
1
6
CONTINUOUS
66
1
70
1
0
VERTEX
8
1
10
6.506
20
2.787
0
VERTEX
8
1
10
6.519
20
2.755
0
VERTEX
8
1
10
6.512
20
2.716
0
VERTEX
8
1
10
6.487
20
2.695
0
VERTEX
8
1
10
6.469
20
2.690
0
VERTEX
8
1
10
6.437
20
2.693
0
VERTEX
8
1
10
6.425
20
2.727
0
VERTEX
8
1
10
6.441
20
2.772
0
VERTEX
8
1
10
6.466
20
2.794
  0
SEQEND
0
POLYLINE
8
1
6
CONTINUOUS
66
1
70
1
0
VERTEX
8
1
10
6.421
20
2.880
0
VERTEX
8
1
10
6.434
20
2.866
0
VERTEX
8
1
10
6.424
20
2.851
0
VERTEX
8
1
10
6.345
20
2.835
0
VERTEX
8
1
10
6.204
20
2.809
0
VERTEX
8
1
10
5.744
20
2.725
0
VERTEX
8
1
10
5.578
20
2.697
0
VERTEX
8
1
10
5.542
20
2.692
0
VERTEX
8
1
10
5.521
20
2.699
0
VERTEX
8
1
10
5.522
20
2.709
0
VERTEX
8
1
10
5.564
20
2.723
0
VERTEX
8
1
10
5.728
20
2.753
0
VERTEX
8
1
10
6.222
20
2.844
0
VERTEX
8
1
10
6.411
20
2.881
  0
SEQEND
0
POLYLINE
8
1
6
CONTINUOUS
66
1
70
1
0
VERTEX
8
1
10
6.612
20
2.899
0
VERTEX
8
1
10
6.661
20
2.890
0
VERTEX
8
1
10
6.682
20
2.871
0
VERTEX
8
1
10
6.681
20
2.845
0
VERTEX
8
1
10
6.655
20
2.799
0
VERTEX
8
1
10
6.624
20
2.777
0
VERTEX
8
1
10
6.587
20
2.793
0
VERTEX
8
1
10
6.574
20
2.835
0
VERTEX
8
1
10
6.581
20
2.878
0
VERTEX
8
1
10
6.603
20
2.898
  0
SEQEND
0
POLYLINE
8
1
6
CONTINUOUS
66
1
70
1
0
VERTEX
8
1
10
4.984
20
2.940
0
VERTEX
8
1
10
4.984
20
2.924
0
VERTEX
8
1
10
4.922
20
2.869
0
VERTEX
8
1
10
4.873
20
2.802
0
VERTEX
8
1
10
4.846
20
2.731
0
VERTEX
8
1
10
4.847
20
2.680
0
VERTEX
8
1
10
4.869
20
2.632
0
VERTEX
8
1
10
4.909
20
2.592
0
VERTEX
8
1
10
4.953
20
2.572
0
VERTEX
8
1
10
4.961
20
2.560
0
VERTEX
8
1
10
4.952
20
2.546
0
VERTEX
8
1
10
4.944
20
2.544
0
VERTEX
8
1
10
4.903
20
2.556
0
VERTEX
8
1
10
4.852
20
2.598
0
VERTEX
8
1
10
4.818
20
2.661
0
VERTEX
8
1
10
4.811
20
2.698
0
VERTEX
8
1
10
4.821
20
2.764
0
VERTEX
8
1
10
4.860
20
2.843
0
VERTEX
8
1
10
4.909
20
2.900
0
VERTEX
8
1
10
4.929
20
2.918
0
VERTEX
8
1
10
4.970
20
2.943
  0
SEQEND
0
POLYLINE
8
1
6
CONTINUOUS
66
1
70
1
0
VERTEX
8
1
10
1.753
20
2.964
0
VERTEX
8
1
10
1.774
20
2.922
0
VERTEX
8
1
10
1.771
20
2.898
0
VERTEX
8
1
10
1.696
20
2.824
0
VERTEX
8
1
10
1.469
20
2.602
0
VERTEX
8
1
10
1.397
20
2.530
0
VERTEX
8
1
10
1.389
20
2.522
0
VERTEX
8
1
10
1.364
20
2.505
0
VERTEX
8
1
10
1.350
20
2.511
0
VERTEX
8
1
10
1.318
20
2.550
0
VERTEX
8
1
10
1.315
20
2.572
0
VERTEX
8
1
10
1.422
20
2.679
0
VERTEX
8
1
10
1.628
20
2.880
0
VERTEX
8
1
10
1.705
20
2.955
0
VERTEX
8
1
10
1.736
20
2.983
  0
SEQEND
0
POLYLINE
8
1
6
CONTINUOUS
66
1
70
1
0
VERTEX
8
1
10
5.190
20
3.009
0
VERTEX
8
1
10
5.290
20
2.986
0
VERTEX
8
1
10
5.362
20
2.949
0
VERTEX
8
1
10
5.411
20
2.899
0
VERTEX
8
1
10
5.439
20
2.837
0
VERTEX
8
1
10
5.445
20
2.769
0
VERTEX
8
1
10
5.426
20
2.686
0
VERTEX
8
1
10
5.404
20
2.635
0
VERTEX
8
1
10
5.383
20
2.621
0
VERTEX
8
1
10
5.376
20
2.624
0
VERTEX
8
1
10
5.371
20
2.644
0
VERTEX
8
1
10
5.403
20
2.715
0
VERTEX
8
1
10
5.411
20
2.808
0
VERTEX
8
1
10
5.389
20
2.868
0
VERTEX
8
1
10
5.349
20
2.915
0
VERTEX
8
1
10
5.288
20
2.950
0
VERTEX
8
1
10
5.139
20
2.979
0
VERTEX
8
1
10
4.876
20
2.975
0
VERTEX
8
1
10
4.775
20
2.967
0
VERTEX
8
1
10
4.758
20
2.966
0
VERTEX
8
1
10
4.739
20
2.975
0
VERTEX
8
1
10
4.741
20
2.989
0
VERTEX
8
1
10
4.771
20
3.000
0
VERTEX
8
1
10
4.802
20
3.003
0
VERTEX
8
1
10
5.035
20
3.011
  0
SEQEND
0
POLYLINE
8
1
6
CONTINUOUS
66
1
70
1
0
VERTEX
8
1
10
6.723
20
3.075
0
VERTEX
8
1
10
6.742
20
3.049
0
VERTEX
8
1
10
6.743
20
3.013
0
VERTEX
8
1
10
6.732
20
2.998
0
VERTEX
8
1
10
6.689
20
2.981
0
VERTEX
8
1
10
6.664
20
2.986
0
VERTEX
8
1
10
6.647
20
3.012
0
VERTEX
8
1
10
6.650
20
3.050
0
VERTEX
8
1
10
6.659
20
3.062
0
VERTEX
8
1
10
6.700
20
3.079
  0
SEQEND
0
POLYLINE
8
1
6
CONTINUOUS
66
1
70
1
0
VERTEX
8
1
10
4.697
20
3.104
0
VERTEX
8
1
10
4.697
20
3.083
0
VERTEX
8
1
10
4.658
20
3.024
0
VERTEX
8
1
10
4.491
20
2.807
0
VERTEX
8
1
10
4.467
20
2.772
0
VERTEX
8
1
10
4.431
20
2.738
0
VERTEX
8
1
10
4.396
20
2.737
0
VERTEX
8
1
10
4.373
20
2.727
0
VERTEX
8
1
10
4.353
20
2.699
0
VERTEX
8
1
10
4.302
20
2.584
0
VERTEX
8
1
10
4.281
20
2.525
0
VERTEX
8
1
10
4.264
20
2.513
0
VERTEX
8
1
10
4.169
20
2.511
0
VERTEX
8
1
10
4.063
20
2.468
0
VERTEX
8
1
10
3.996
20
2.446
0
VERTEX
8
1
10
3.950
20
2.445
0
VERTEX
8
1
10
3.864
20
2.464
0
VERTEX
8
1
10
3.709
20
2.539
0
VERTEX
8
1
10
3.664
20
2.568
0
VERTEX
8
1
10
3.640
20
2.599
0
VERTEX
8
1
10
3.643
20
2.624
0
VERTEX
8
1
10
3.690
20
2.658
0
VERTEX
8
1
10
3.794
20
2.682
0
VERTEX
8
1
10
3.840
20
2.698
0
VERTEX
8
1
10
3.933
20
2.756
0
VERTEX
8
1
10
4.023
20
2.842
0
VERTEX
8
1
10
4.049
20
2.880
0
VERTEX
8
1
10
4.038
20
2.912
0
VERTEX
8
1
10
4.043
20
2.924
0
VERTEX
8
1
10
4.063
20
2.929
0
VERTEX
8
1
10
4.091
20
2.905
0
VERTEX
8
1
10
4.085
20
2.874
0
VERTEX
8
1
10
4.040
20
2.814
0
VERTEX
8
1
10
3.958
20
2.735
0
VERTEX
8
1
10
3.867
20
2.678
0
VERTEX
8
1
10
3.769
20
2.644
0
VERTEX
8
1
10
3.697
20
2.621
0
VERTEX
8
1
10
3.685
20
2.615
0
VERTEX
8
1
10
3.681
20
2.602
0
VERTEX
8
1
10
3.698
20
2.582
0
VERTEX
8
1
10
3.781
20
2.540
0
VERTEX
8
1
10
3.875
20
2.497
0
VERTEX
8
1
10
3.957
20
2.478
0
VERTEX
8
1
10
4.027
20
2.485
0
VERTEX
8
1
10
4.142
20
2.539
0
VERTEX
8
1
10
4.218
20
2.537
0
VERTEX
8
1
10
4.252
20
2.544
0
VERTEX
8
1
10
4.278
20
2.609
0
VERTEX
8
1
10
4.291
20
2.640
0
VERTEX
8
1
10
4.348
20
2.749
0
VERTEX
8
1
10
4.359
20
2.760
0
VERTEX
8
1
10
4.391
20
2.765
0
VERTEX
8
1
10
4.423
20
2.771
0
VERTEX
8
1
10
4.514
20
2.885
0
VERTEX
8
1
10
4.641
20
3.046
0
VERTEX
8
1
10
4.668
20
3.085
0
VERTEX
8
1
10
4.692
20
3.105
  0
SEQEND
0
POLYLINE
8
1
6
CONTINUOUS
66
1
70
1
0
VERTEX
8
1
10
6.593
20
3.114
0
VERTEX
8
1
10
6.613
20
3.104
0
VERTEX
8
1
10
6.607
20
3.090
0
VERTEX
8
1
10
6.579
20
3.081
0
VERTEX
8
1
10
6.552
20
3.067
0
VERTEX
8
1
10
6.539
20
3.042
0
VERTEX
8
1
10
6.516
20
3.001
0
VERTEX
8
1
10
6.508
20
2.995
0
VERTEX
8
1
10
6.435
20
2.976
0
VERTEX
8
1
10
6.262
20
2.949
0
VERTEX
8
1
10
6.213
20
2.942
0
VERTEX
8
1
10
6.182
20
2.946
0
VERTEX
8
1
10
6.178
20
2.950
0
VERTEX
8
1
10
6.188
20
2.965
0
VERTEX
8
1
10
6.236
20
2.978
0
VERTEX
8
1
10
6.419
20
3.004
0
VERTEX
8
1
10
6.443
20
3.008
0
VERTEX
8
1
10
6.490
20
3.022
0
VERTEX
8
1
10
6.510
20
3.060
0
VERTEX
8
1
10
6.536
20
3.097
0
VERTEX
8
1
10
6.574
20
3.115
  0
SEQEND
0
POLYLINE
8
1
6
CONTINUOUS
66
1
70
1
0
VERTEX
8
1
10
3.765
20
3.361
0
VERTEX
8
1
10
3.801
20
3.320
0
VERTEX
8
1
10
3.838
20
3.270
0
VERTEX
8
1
10
3.906
20
3.164
0
VERTEX
8
1
10
3.924
20
3.132
0
VERTEX
8
1
10
3.929
20
3.103
0
VERTEX
8
1
10
3.913
20
3.091
0
VERTEX
8
1
10
3.765
20
3.090
0
VERTEX
8
1
10
3.738
20
3.092
0
VERTEX
8
1
10
3.711
20
3.108
0
VERTEX
8
1
10
3.701
20
3.127
0
VERTEX
8
1
10
3.691
20
3.199
0
VERTEX
8
1
10
3.687
20
3.256
0
VERTEX
8
1
10
3.693
20
3.308
0
VERTEX
8
1
10
3.718
20
3.344
0
VERTEX
8
1
10
3.751
20
3.364
  0
SEQEND
0
POLYLINE
8
1
6
CONTINUOUS
66
1
70
1
0
VERTEX
8
1
10
1.209
20
3.366
0
VERTEX
8
1
10
1.324
20
3.341
0
VERTEX
8
1
10
1.438
20
3.294
0
VERTEX
8
1
10
1.548
20
3.221
0
VERTEX
8
1
10
1.633
20
3.141
0
VERTEX
8
1
10
1.643
20
3.131
0
VERTEX
8
1
10
1.655
20
3.108
0
VERTEX
8
1
10
1.631
20
3.081
0
VERTEX
8
1
10
1.564
20
3.018
0
VERTEX
8
1
10
1.337
20
2.791
0
VERTEX
8
1
10
1.278
20
2.729
0
VERTEX
8
1
10
1.251
20
2.708
0
VERTEX
8
1
10
1.224
20
2.740
0
VERTEX
8
1
10
1.196
20
2.774
0
VERTEX
8
1
10
1.148
20
2.802
0
VERTEX
8
1
10
1.089
20
2.811
0
VERTEX
8
1
10
1.030
20
2.798
0
VERTEX
8
1
10
0.972
20
2.762
0
VERTEX
8
1
10
0.923
20
2.705
0
VERTEX
8
1
10
0.894
20
2.637
0
VERTEX
8
1
10
0.887
20
2.567
0
VERTEX
8
1
10
0.895
20
2.524
0
VERTEX
8
1
10
0.924
20
2.468
0
VERTEX
8
1
10
0.970
20
2.427
0
VERTEX
8
1
10
1.027
20
2.407
0
VERTEX
8
1
10
1.094
20
2.410
0
VERTEX
8
1
10
1.169
20
2.434
0
VERTEX
8
1
10
1.209
20
2.453
0
VERTEX
8
1
10
1.242
20
2.438
0
VERTEX
8
1
10
1.263
20
2.381
0
VERTEX
8
1
10
1.273
20
2.354
0
VERTEX
8
1
10
1.305
20
2.320
0
VERTEX
8
1
10
1.337
20
2.308
0
VERTEX
8
1
10
1.379
20
2.312
0
VERTEX
8
1
10
1.419
20
2.341
0
VERTEX
8
1
10
1.448
20
2.383
0
VERTEX
8
1
10
1.577
20
2.511
0
VERTEX
8
1
10
1.763
20
2.693
0
VERTEX
8
1
10
1.808
20
2.735
0
VERTEX
8
1
10
1.826
20
2.746
0
VERTEX
8
1
10
1.839
20
2.707
0
VERTEX
8
1
10
1.841
20
2.672
0
VERTEX
8
1
10
1.848
20
2.586
0
VERTEX
8
1
10
1.841
20
2.433
0
VERTEX
8
1
10
1.799
20
2.259
0
VERTEX
8
1
10
1.741
20
2.127
0
VERTEX
8
1
10
1.668
20
2.015
0
VERTEX
8
1
10
1.578
20
1.916
0
VERTEX
8
1
10
1.479
20
1.841
0
VERTEX
8
1
10
1.376
20
1.789
0
VERTEX
8
1
10
1.252
20
1.753
0
VERTEX
8
1
10
1.029
20
1.753
0
VERTEX
8
1
10
0.915
20
1.785
0
VERTEX
8
1
10
0.801
20
1.841
0
VERTEX
8
1
10
0.699
20
1.917
0
VERTEX
8
1
10
0.610
20
2.010
0
VERTEX
8
1
10
0.538
20
2.116
0
VERTEX
8
1
10
0.480
20
2.243
0
VERTEX
8
1
10
0.434
20
2.439
0
VERTEX
8
1
10
0.428
20
2.578
0
VERTEX
8
1
10
0.441
20
2.718
0
VERTEX
8
1
10
0.475
20
2.854
0
VERTEX
8
1
10
0.529
20
2.982
0
VERTEX
8
1
10
0.596
20
3.088
0
VERTEX
8
1
10
0.680
20
3.183
0
VERTEX
8
1
10
0.781
20
3.262
0
VERTEX
8
1
10
0.899
20
3.323
0
VERTEX
8
1
10
0.960
20
3.344
0
VERTEX
8
1
10
1.090
20
3.368
  0
SEQEND
0
POLYLINE
8
1
6
CONTINUOUS
66
1
70
1
0
VERTEX
8
1
10
4.935
20
3.413
0
VERTEX
8
1
10
4.950
20
3.366
0
VERTEX
8
1
10
4.956
20
3.325
0
VERTEX
8
1
10
4.979
20
3.223
0
VERTEX
8
1
10
4.980
20
3.206
0
VERTEX
8
1
10
4.968
20
3.183
0
VERTEX
8
1
10
4.923
20
3.177
0
VERTEX
8
1
10
4.885
20
3.159
0
VERTEX
8
1
10
4.874
20
3.160
0
VERTEX
8
1
10
4.831
20
3.188
0
VERTEX
8
1
10
4.806
20
3.207
0
VERTEX
8
1
10
4.789
20
3.236
0
VERTEX
8
1
10
4.789
20
3.245
0
VERTEX
8
1
10
4.807
20
3.290
0
VERTEX
8
1
10
4.841
20
3.353
0
VERTEX
8
1
10
4.880
20
3.407
0
VERTEX
8
1
10
4.914
20
3.423
  0
SEQEND
0
POLYLINE
8
1
6
CONTINUOUS
66
1
70
1
0
VERTEX
8
1
10
6.430
20
3.466
0
VERTEX
8
1
10
6.466
20
3.443
0
VERTEX
8
1
10
6.494
20
3.418
0
VERTEX
8
1
10
6.621
20
3.338
0
VERTEX
8
1
10
6.671
20
3.288
0
VERTEX
8
1
10
6.675
20
3.240
0
VERTEX
8
1
10
6.748
20
3.183
0
VERTEX
8
1
10
6.754
20
3.166
0
VERTEX
8
1
10
6.745
20
3.152
0
VERTEX
8
1
10
6.718
20
3.161
0
VERTEX
8
1
10
6.655
20
3.211
0
VERTEX
8
1
10
6.649
20
3.216
0
VERTEX
8
1
10
6.637
20
3.241
0
VERTEX
8
1
10
6.641
20
3.257
0
VERTEX
8
1
10
6.639
20
3.277
0
VERTEX
8
1
10
6.619
20
3.299
0
VERTEX
8
1
10
6.473
20
3.399
0
VERTEX
8
1
10
6.422
20
3.444
0
VERTEX
8
1
10
6.416
20
3.454
0
VERTEX
8
1
10
6.420
20
3.466
  0
SEQEND
0
POLYLINE
8
1
6
CONTINUOUS
66
1
70
1
0
VERTEX
8
1
10
5.396
20
3.491
0
VERTEX
8
1
10
5.427
20
3.481
0
VERTEX
8
1
10
5.443
20
3.451
0
VERTEX
8
1
10
5.446
20
3.421
0
VERTEX
8
1
10
5.477
20
3.411
0
VERTEX
8
1
10
5.491
20
3.395
0
VERTEX
8
1
10
5.500
20
3.344
0
VERTEX
8
1
10
5.503
20
3.276
0
VERTEX
8
1
10
5.491
20
3.262
0
VERTEX
8
1
10
5.482
20
3.264
0
VERTEX
8
1
10
5.471
20
3.290
0
VERTEX
8
1
10
5.471
20
3.350
0
VERTEX
8
1
10
5.461
20
3.379
0
VERTEX
8
1
10
5.423
20
3.385
0
VERTEX
8
1
10
5.403
20
3.394
0
VERTEX
8
1
10
5.410
20
3.439
0
VERTEX
8
1
10
5.402
20
3.454
0
VERTEX
8
1
10
5.382
20
3.456
0
VERTEX
8
1
10
5.358
20
3.401
0
VERTEX
8
1
10
5.352
20
3.395
0
VERTEX
8
1
10
5.306
20
3.375
0
VERTEX
8
1
10
5.268
20
3.370
0
VERTEX
8
1
10
5.253
20
3.380
0
VERTEX
8
1
10
5.255
20
3.399
0
VERTEX
8
1
10
5.321
20
3.417
0
VERTEX
8
1
10
5.332
20
3.451
0
VERTEX
8
1
10
5.348
20
3.473
0
VERTEX
8
1
10
5.387
20
3.490
  0
SEQEND
0
POLYLINE
8
1
6
CONTINUOUS
66
1
70
1
0
VERTEX
8
1
10
4.238
20
3.573
0
VERTEX
8
1
10
4.241
20
3.558
0
VERTEX
8
1
10
4.213
20
3.545
0
VERTEX
8
1
10
4.193
20
3.536
0
VERTEX
8
1
10
4.206
20
3.483
0
VERTEX
8
1
10
4.229
20
3.358
0
VERTEX
8
1
10
4.238
20
3.331
0
VERTEX
8
1
10
4.244
20
3.280
0
VERTEX
8
1
10
4.232
20
3.265
0
VERTEX
8
1
10
4.227
20
3.265
0
VERTEX
8
1
10
4.214
20
3.285
0
VERTEX
8
1
10
4.196
20
3.372
0
VERTEX
8
1
10
4.175
20
3.486
0
VERTEX
8
1
10
4.160
20
3.527
0
VERTEX
8
1
10
4.112
20
3.529
0
VERTEX
8
1
10
3.991
20
3.509
0
VERTEX
8
1
10
3.976
20
3.507
0
VERTEX
8
1
10
3.946
20
3.498
0
VERTEX
8
1
10
3.950
20
3.477
0
VERTEX
8
1
10
3.976
20
3.425
0
VERTEX
8
1
10
3.987
20
3.402
0
VERTEX
8
1
10
4.060
20
3.208
0
VERTEX
8
1
10
4.088
20
3.145
0
VERTEX
8
1
10
4.088
20
3.137
0
VERTEX
8
1
10
4.077
20
3.123
0
VERTEX
8
1
10
4.074
20
3.123
0
VERTEX
8
1
10
4.056
20
3.139
0
VERTEX
8
1
10
4.028
20
3.209
0
VERTEX
8
1
10
4.016
20
3.248
0
VERTEX
8
1
10
3.943
20
3.419
0
VERTEX
8
1
10
3.927
20
3.456
0
VERTEX
8
1
10
3.903
20
3.489
0
VERTEX
8
1
10
3.830
20
3.482
0
VERTEX
8
1
10
3.819
20
3.481
0
VERTEX
8
1
10
3.802
20
3.490
0
VERTEX
8
1
10
3.801
20
3.497
0
VERTEX
8
1
10
3.819
20
3.513
0
VERTEX
8
1
10
3.895
20
3.524
0
VERTEX
8
1
10
4.222
20
3.578
  0
SEQEND
0
POLYLINE
8
1
6
CONTINUOUS
66
1
70
1
0
VERTEX
8
1
10
6.117
20
3.591
0
VERTEX
8
1
10
6.164
20
3.570
0
VERTEX
8
1
10
6.186
20
3.549
0
VERTEX
8
1
10
6.184
20
3.530
0
VERTEX
8
1
10
6.182
20
3.509
0
VERTEX
8
1
10
6.278
20
3.449
0
VERTEX
8
1
10
6.354
20
3.382
0
VERTEX
8
1
10
6.446
20
3.322
0
VERTEX
8
1
10
6.517
20
3.270
0
VERTEX
8
1
10
6.523
20
3.256
0
VERTEX
8
1
10
6.516
20
3.241
0
VERTEX
8
1
10
6.489
20
3.249
0
VERTEX
8
1
10
6.428
20
3.296
0
VERTEX
8
1
10
6.330
20
3.358
0
VERTEX
8
1
10
6.260
20
3.423
0
VERTEX
8
1
10
6.218
20
3.446
0
VERTEX
8
1
10
6.156
20
3.487
0
VERTEX
8
1
10
6.154
20
3.489
0
VERTEX
8
1
10
6.142
20
3.516
0
VERTEX
8
1
10
6.146
20
3.541
0
VERTEX
8
1
10
6.101
20
3.573
0
VERTEX
8
1
10
6.098
20
3.578
0
VERTEX
8
1
10
6.103
20
3.590
  0
SEQEND
0
POLYLINE
8
1
6
CONTINUOUS
66
1
70
1
0
VERTEX
8
1
10
5.939
20
3.668
0
VERTEX
8
1
10
5.984
20
3.662
0
VERTEX
8
1
10
6.000
20
3.642
0
VERTEX
8
1
10
5.996
20
3.619
0
VERTEX
8
1
10
5.957
20
3.570
0
VERTEX
8
1
10
5.802
20
3.421
0
VERTEX
8
1
10
5.707
20
3.320
0
VERTEX
8
1
10
5.687
20
3.298
0
VERTEX
8
1
10
5.667
20
3.295
0
VERTEX
8
1
10
5.660
20
3.311
0
VERTEX
8
1
10
5.684
20
3.344
0
VERTEX
8
1
10
5.706
20
3.367
0
VERTEX
8
1
10
5.899
20
3.554
0
VERTEX
8
1
10
5.950
20
3.612
0
VERTEX
8
1
10
5.956
20
3.620
0
VERTEX
8
1
10
5.957
20
3.634
0
VERTEX
8
1
10
5.886
20
3.637
0
VERTEX
8
1
10
5.713
20
3.637
0
VERTEX
8
1
10
5.686
20
3.637
0
VERTEX
8
1
10
5.649
20
3.628
0
VERTEX
8
1
10
5.641
20
3.618
0
VERTEX
8
1
10
5.625
20
3.535
0
VERTEX
8
1
10
5.620
20
3.514
0
VERTEX
8
1
10
5.603
20
3.384
0
VERTEX
8
1
10
5.600
20
3.351
0
VERTEX
8
1
10
5.585
20
3.343
0
VERTEX
8
1
10
5.572
20
3.351
0
VERTEX
8
1
10
5.571
20
3.390
0
VERTEX
8
1
10
5.591
20
3.532
0
VERTEX
8
1
10
5.600
20
3.568
0
VERTEX
8
1
10
5.595
20
3.584
0
VERTEX
8
1
10
5.506
20
3.588
0
VERTEX
8
1
10
5.268
20
3.588
0
VERTEX
8
1
10
5.195
20
3.594
0
VERTEX
8
1
10
5.157
20
3.587
0
VERTEX
8
1
10
5.145
20
3.551
0
VERTEX
8
1
10
5.132
20
3.440
0
VERTEX
8
1
10
5.125
20
3.405
0
VERTEX
8
1
10
5.109
20
3.398
0
VERTEX
8
1
10
5.100
20
3.406
0
VERTEX
8
1
10
5.105
20
3.456
0
VERTEX
8
1
10
5.117
20
3.568
0
VERTEX
8
1
10
5.126
20
3.599
0
VERTEX
8
1
10
5.147
20
3.618
0
VERTEX
8
1
10
5.157
20
3.622
0
VERTEX
8
1
10
5.259
20
3.619
0
VERTEX
8
1
10
5.511
20
3.619
0
VERTEX
8
1
10
5.578
20
3.624
0
VERTEX
8
1
10
5.604
20
3.624
0
VERTEX
8
1
10
5.619
20
3.644
0
VERTEX
8
1
10
5.638
20
3.662
0
VERTEX
8
1
10
5.737
20
3.669
  0
SEQEND
0
POLYLINE
8
1
6
CONTINUOUS
66
1
70
1
0
VERTEX
8
1
10
6.576
20
3.672
0
VERTEX
8
1
10
6.655
20
3.665
0
VERTEX
8
1
10
6.769
20
3.640
0
VERTEX
8
1
10
6.862
20
3.597
0
VERTEX
8
1
10
6.884
20
3.584
0
VERTEX
8
1
10
6.974
20
3.514
0
VERTEX
8
1
10
6.994
20
3.483
0
VERTEX
8
1
10
6.985
20
3.471
0
VERTEX
8
1
10
6.977
20
3.470
0
VERTEX
8
1
10
6.946
20
3.499
0
VERTEX
8
1
10
6.937
20
3.508
0
VERTEX
8
1
10
6.837
20
3.574
0
VERTEX
8
1
10
6.799
20
3.593
0
VERTEX
8
1
10
6.693
20
3.628
0
VERTEX
8
1
10
6.572
20
3.642
0
VERTEX
8
1
10
6.475
20
3.645
0
VERTEX
8
1
10
6.464
20
3.645
0
VERTEX
8
1
10
6.437
20
3.652
0
VERTEX
8
1
10
6.434
20
3.662
0
VERTEX
8
1
10
6.467
20
3.674
  0
SEQEND
0
POLYLINE
8
1
6
CONTINUOUS
66
1
70
1
0
VERTEX
8
1
10
4.024
20
3.676
0
VERTEX
8
1
10
4.043
20
3.654
0
VERTEX
8
1
10
4.063
20
3.637
0
VERTEX
8
1
10
4.107
20
3.635
0
VERTEX
8
1
10
4.156
20
3.642
0
VERTEX
8
1
10
4.165
20
3.652
0
VERTEX
8
1
10
4.180
20
3.668
0
VERTEX
8
1
10
4.192
20
3.665
0
VERTEX
8
1
10
4.197
20
3.643
0
VERTEX
8
1
10
4.185
20
3.618
0
VERTEX
8
1
10
4.165
20
3.610
0
VERTEX
8
1
10
4.075
20
3.605
0
VERTEX
8
1
10
4.036
20
3.608
0
VERTEX
8
1
10
4.026
20
3.618
0
VERTEX
8
1
10
4.010
20
3.659
0
VERTEX
8
1
10
4.018
20
3.675
  0
SEQEND
0
POLYLINE
8
1
6
CONTINUOUS
66
1
70
1
0
VERTEX
8
1
10
3.970
20
3.693
0
VERTEX
8
1
10
3.981
20
3.679
0
VERTEX
8
1
10
3.974
20
3.577
0
VERTEX
8
1
10
3.974
20
3.558
0
VERTEX
8
1
10
3.963
20
3.543
0
VERTEX
8
1
10
3.955
20
3.544
0
VERTEX
8
1
10
3.944
20
3.574
0
VERTEX
8
1
10
3.944
20
3.665
0
VERTEX
8
1
10
3.946
20
3.674
0
VERTEX
8
1
10
3.962
20
3.692
  0
SEQEND
0
POLYLINE
8
1
6
CONTINUOUS
66
1
70
1
0
VERTEX
8
1
10
6.016
20
3.928
0
VERTEX
8
1
10
6.014
20
3.910
0
VERTEX
8
1
10
5.969
20
3.872
0
VERTEX
8
1
10
5.913
20
3.841
0
VERTEX
8
1
10
5.794
20
3.805
0
VERTEX
8
1
10
5.595
20
3.777
0
VERTEX
8
1
10
5.293
20
3.771
0
VERTEX
8
1
10
5.161
20
3.778
0
VERTEX
8
1
10
5.130
20
3.786
0
VERTEX
8
1
10
5.091
20
3.786
0
VERTEX
8
1
10
5.080
20
3.780
0
VERTEX
8
1
10
5.045
20
3.731
0
VERTEX
8
1
10
4.975
20
3.568
0
VERTEX
8
1
10
4.949
20
3.507
0
VERTEX
8
1
10
4.933
20
3.501
0
VERTEX
8
1
10
4.923
20
3.514
0
VERTEX
8
1
10
4.934
20
3.554
0
VERTEX
8
1
10
4.948
20
3.584
0
VERTEX
8
1
10
5.019
20
3.749
0
VERTEX
8
1
10
5.043
20
3.787
0
VERTEX
8
1
10
5.080
20
3.816
0
VERTEX
8
1
10
5.090
20
3.819
0
VERTEX
8
1
10
5.165
20
3.809
0
VERTEX
8
1
10
5.297
20
3.801
0
VERTEX
8
1
10
5.544
20
3.805
0
VERTEX
8
1
10
5.771
20
3.830
0
VERTEX
8
1
10
5.845
20
3.846
0
VERTEX
8
1
10
5.933
20
3.881
0
VERTEX
8
1
10
5.982
20
3.919
0
VERTEX
8
1
10
6.012
20
3.930
  0
SEQEND
0
POLYLINE
8
1
6
CONTINUOUS
66
1
70
1
0
VERTEX
8
1
10
6.940
20
4.019
0
VERTEX
8
1
10
6.932
20
3.969
0
VERTEX
8
1
10
6.916
20
3.917
0
VERTEX
8
1
10
6.893
20
3.816
0
VERTEX
8
1
10
6.899
20
3.759
0
VERTEX
8
1
10
6.923
20
3.693
0
VERTEX
8
1
10
6.925
20
3.686
0
VERTEX
8
1
10
6.925
20
3.671
0
VERTEX
8
1
10
6.898
20
3.685
0
VERTEX
8
1
10
6.824
20
3.728
0
VERTEX
8
1
10
6.763
20
3.756
0
VERTEX
8
1
10
6.741
20
3.769
0
VERTEX
8
1
10
6.778
20
3.831
0
VERTEX
8
1
10
6.874
20
3.975
0
VERTEX
8
1
10
6.893
20
4.004
0
VERTEX
8
1
10
6.921
20
4.027
  0
SEQEND
0
POLYLINE
8
1
6
CONTINUOUS
66
1
70
1
0
VERTEX
8
1
10
3.037
20
4.237
0
VERTEX
8
1
10
3.083
20
4.204
0
VERTEX
8
1
10
3.089
20
4.187
0
VERTEX
8
1
10
3.027
20
4.127
0
VERTEX
8
1
10
2.905
20
4.006
0
VERTEX
8
1
10
2.409
20
3.525
0
VERTEX
8
1
10
2.221
20
3.349
0
VERTEX
8
1
10
2.021
20
3.141
0
VERTEX
8
1
10
1.970
20
3.092
0
VERTEX
8
1
10
1.947
20
3.076
0
VERTEX
8
1
10
1.930
20
3.094
0
VERTEX
8
1
10
1.907
20
3.130
0
VERTEX
8
1
10
1.907
20
3.153
0
VERTEX
8
1
10
1.974
20
3.220
0
VERTEX
8
1
10
2.100
20
3.344
0
VERTEX
8
1
10
2.555
20
3.789
0
VERTEX
8
1
10
2.761
20
3.983
0
VERTEX
8
1
10
2.944
20
4.171
0
VERTEX
8
1
10
2.989
20
4.221
0
VERTEX
8
1
10
3.020
20
4.241
  0
SEQEND
0
POLYLINE
8
1
6
CONTINUOUS
66
1
70
1
0
VERTEX
8
1
10
3.678
20
4.425
0
VERTEX
8
1
10
3.685
20
4.409
0
VERTEX
8
1
10
3.672
20
4.346
0
VERTEX
8
1
10
3.655
20
4.286
0
VERTEX
8
1
10
3.641
20
4.187
0
VERTEX
8
1
10
3.651
20
4.114
0
VERTEX
8
1
10
3.682
20
4.052
0
VERTEX
8
1
10
3.712
20
4.018
0
VERTEX
8
1
10
3.779
20
3.972
0
VERTEX
8
1
10
3.873
20
3.938
0
VERTEX
8
1
10
4.057
20
3.909
0
VERTEX
8
1
10
4.268
20
3.879
0
VERTEX
8
1
10
4.413
20
3.864
0
VERTEX
8
1
10
4.436
20
3.846
0
VERTEX
8
1
10
4.430
20
3.833
0
VERTEX
8
1
10
4.382
20
3.836
0
VERTEX
8
1
10
4.227
20
3.855
0
VERTEX
8
1
10
3.947
20
3.892
0
VERTEX
8
1
10
3.889
20
3.903
0
VERTEX
8
1
10
3.792
20
3.932
0
VERTEX
8
1
10
3.703
20
3.986
0
VERTEX
8
1
10
3.652
20
4.039
0
VERTEX
8
1
10
3.613
20
4.138
0
VERTEX
8
1
10
3.612
20
4.222
0
VERTEX
8
1
10
3.639
20
4.337
0
VERTEX
8
1
10
3.658
20
4.408
0
VERTEX
8
1
10
3.675
20
4.425
  0
SEQEND
0
POLYLINE
8
1
6
CONTINUOUS
66
1
70
1
0
VERTEX
8
1
10
5.138
20
4.437
0
VERTEX
8
1
10
5.162
20
4.407
0
VERTEX
8
1
10
5.221
20
4.360
0
VERTEX
8
1
10
5.246
20
4.342
0
VERTEX
8
1
10
5.306
20
4.354
0
VERTEX
8
1
10
5.403
20
4.379
0
VERTEX
8
1
10
5.431
20
4.383
0
VERTEX
8
1
10
5.517
20
4.372
0
VERTEX
8
1
10
5.537
20
4.365
0
VERTEX
8
1
10
5.656
20
4.295
0
VERTEX
8
1
10
5.850
20
4.181
0
VERTEX
8
1
10
5.964
20
4.139
0
VERTEX
8
1
10
6.063
20
4.119
0
VERTEX
8
1
10
6.075
20
4.107
0
VERTEX
8
1
10
6.068
20
4.093
0
VERTEX
8
1
10
6.027
20
4.094
0
VERTEX
8
1
10
5.935
20
4.116
0
VERTEX
8
1
10
5.871
20
4.138
0
VERTEX
8
1
10
5.538
20
4.330
0
VERTEX
8
1
10
5.462
20
4.347
0
VERTEX
8
1
10
5.336
20
4.325
0
VERTEX
8
1
10
5.173
20
4.295
0
VERTEX
8
1
10
4.939
20
4.243
0
VERTEX
8
1
10
4.842
20
4.215
0
VERTEX
8
1
10
4.786
20
4.182
0
VERTEX
8
1
10
4.774
20
4.169
0
VERTEX
8
1
10
4.732
20
4.083
0
VERTEX
8
1
10
4.649
20
3.899
0
VERTEX
8
1
10
4.340
20
3.300
0
VERTEX
8
1
10
4.302
20
3.230
0
VERTEX
8
1
10
4.206
20
3.081
0
VERTEX
8
1
10
4.171
20
3.034
0
VERTEX
8
1
10
4.146
20
3.018
0
VERTEX
8
1
10
4.137
20
3.020
0
VERTEX
8
1
10
4.141
20
3.045
0
VERTEX
8
1
10
4.200
20
3.122
0
VERTEX
8
1
10
4.245
20
3.189
0
VERTEX
8
1
10
4.406
20
3.497
0
VERTEX
8
1
10
4.432
20
3.545
0
VERTEX
8
1
10
4.653
20
3.989
0
VERTEX
8
1
10
4.682
20
4.062
0
VERTEX
8
1
10
4.731
20
4.168
0
VERTEX
8
1
10
4.777
20
4.220
0
VERTEX
8
1
10
4.810
20
4.240
0
VERTEX
8
1
10
4.921
20
4.273
0
VERTEX
8
1
10
5.071
20
4.310
0
VERTEX
8
1
10
5.156
20
4.324
0
VERTEX
8
1
10
5.188
20
4.332
0
VERTEX
8
1
10
5.172
20
4.351
0
VERTEX
8
1
10
5.156
20
4.366
0
VERTEX
8
1
10
5.128
20
4.409
0
VERTEX
8
1
10
5.126
20
4.420
0
VERTEX
8
1
10
5.133
20
4.436
  0
SEQEND
0
POLYLINE
8
1
6
CONTINUOUS
66
1
70
1
0
VERTEX
8
1
10
4.162
20
4.514
0
VERTEX
8
1
10
4.192
20
4.502
0
VERTEX
8
1
10
4.255
20
4.466
0
VERTEX
8
1
10
4.275
20
4.439
0
VERTEX
8
1
10
4.355
20
4.398
0
VERTEX
8
1
10
4.552
20
4.290
0
VERTEX
8
1
10
4.638
20
4.232
0
VERTEX
8
1
10
4.652
20
4.214
0
VERTEX
8
1
10
4.645
20
4.200
0
VERTEX
8
1
10
4.638
20
4.198
0
VERTEX
8
1
10
4.606
20
4.215
0
VERTEX
8
1
10
4.505
20
4.280
0
VERTEX
8
1
10
4.252
20
4.411
0
VERTEX
8
1
10
4.218
20
4.451
0
VERTEX
8
1
10
4.148
20
4.484
0
VERTEX
8
1
10
4.131
20
4.482
0
VERTEX
8
1
10
4.107
20
4.483
0
VERTEX
8
1
10
4.103
20
4.501
0
VERTEX
8
1
10
4.124
20
4.523
  0
SEQEND
0
POLYLINE
8
1
6
CONTINUOUS
66
1
70
1
0
VERTEX
8
1
10
3.412
20
4.570
0
VERTEX
8
1
10
3.420
20
4.556
0
VERTEX
8
1
10
3.361
20
4.495
0
VERTEX
8
1
10
3.234
20
4.363
0
VERTEX
8
1
10
3.206
20
4.329
0
VERTEX
8
1
10
3.173
20
4.306
0
VERTEX
8
1
10
3.127
20
4.317
0
VERTEX
8
1
10
3.118
20
4.330
0
VERTEX
8
1
10
3.122
20
4.338
0
VERTEX
8
1
10
3.192
20
4.393
0
VERTEX
8
1
10
3.321
20
4.518
0
VERTEX
8
1
10
3.342
20
4.541
0
VERTEX
8
1
10
3.379
20
4.573
  0
SEQEND
0
POLYLINE
8
1
6
CONTINUOUS
66
1
70
1
0
VERTEX
8
1
10
3.608
20
4.775
0
VERTEX
8
1
10
3.711
20
4.754
0
VERTEX
8
1
10
3.748
20
4.746
0
VERTEX
8
1
10
3.742
20
4.721
0
VERTEX
8
1
10
3.735
20
4.716
0
VERTEX
8
1
10
3.687
20
4.721
0
VERTEX
8
1
10
3.666
20
4.712
0
VERTEX
8
1
10
3.659
20
4.703
0
VERTEX
8
1
10
3.620
20
4.621
0
VERTEX
8
1
10
3.614
20
4.604
0
VERTEX
8
1
10
3.597
20
4.586
0
VERTEX
8
1
10
3.586
20
4.589
0
VERTEX
8
1
10
3.585
20
4.619
0
VERTEX
8
1
10
3.616
20
4.691
0
VERTEX
8
1
10
3.631
20
4.725
0
VERTEX
8
1
10
3.585
20
4.745
0
VERTEX
8
1
10
3.583
20
4.756
0
VERTEX
8
1
10
3.596
20
4.774
  0
SEQEND
0
POLYLINE
8
1
6
CONTINUOUS
66
1
70
1
0
VERTEX
8
1
10
3.495
20
4.822
0
VERTEX
8
1
10
3.523
20
4.790
0
VERTEX
8
1
10
3.538
20
4.757
0
VERTEX
8
1
10
3.519
20
4.708
0
VERTEX
8
1
10
3.511
20
4.689
0
VERTEX
8
1
10
3.493
20
4.673
0
VERTEX
8
1
10
3.444
20
4.691
0
VERTEX
8
1
10
3.396
20
4.714
0
VERTEX
8
1
10
3.375
20
4.739
0
VERTEX
8
1
10
3.379
20
4.768
0
VERTEX
8
1
10
3.417
20
4.815
0
VERTEX
8
1
10
3.436
20
4.844
0
VERTEX
8
1
10
3.459
20
4.863
  0
SEQEND
0
POLYLINE
8
1
6
CONTINUOUS
66
1
70
1
0
VERTEX
8
1
10
7.908
20
5.621
0
VERTEX
8
1
10
7.865
20
5.556
0
VERTEX
8
1
10
7.690
20
5.300
0
VERTEX
8
1
10
7.001
20
4.293
0
VERTEX
8
1
10
6.803
20
4.004
0
VERTEX
8
1
10
6.755
20
3.934
0
VERTEX
8
1
10
6.753
20
3.931
0
VERTEX
8
1
10
6.732
20
3.910
0
VERTEX
8
1
10
6.705
20
3.915
0
VERTEX
8
1
10
6.688
20
3.927
0
VERTEX
8
1
10
6.698
20
3.955
0
VERTEX
8
1
10
6.701
20
3.963
0
VERTEX
8
1
10
6.703
20
4.011
0
VERTEX
8
1
10
6.702
20
4.017
0
VERTEX
8
1
10
6.673
20
4.053
0
VERTEX
8
1
10
6.652
20
4.068
0
VERTEX
8
1
10
6.690
20
4.118
0
VERTEX
8
1
10
6.800
20
4.255
0
VERTEX
8
1
10
7.626
20
5.283
0
VERTEX
8
1
10
7.839
20
5.547
0
VERTEX
8
1
10
7.895
20
5.617
0
VERTEX
8
1
10
7.918
20
5.643
  0
SEQEND
0
POLYLINE
8
1
6
CONTINUOUS
66
1
70
1
0
VERTEX
8
1
10
4.729
20
5.663
0
VERTEX
8
1
10
4.735
20
5.642
0
VERTEX
8
1
10
4.717
20
5.582
0
VERTEX
8
1
10
4.717
20
5.472
0
VERTEX
8
1
10
4.720
20
5.428
0
VERTEX
8
1
10
4.708
20
5.413
0
VERTEX
8
1
10
4.692
20
5.420
0
VERTEX
8
1
10
4.687
20
5.468
0
VERTEX
8
1
10
4.685
20
5.528
0
VERTEX
8
1
10
4.694
20
5.617
0
VERTEX
8
1
10
4.701
20
5.644
0
VERTEX
8
1
10
4.718
20
5.664
  0
SEQEND
0
POLYLINE
8
1
6
CONTINUOUS
66
1
70
1
0
VERTEX
8
1
10
3.663
20
5.725
0
VERTEX
8
1
10
3.708
20
5.709
0
VERTEX
8
1
10
3.742
20
5.692
0
VERTEX
8
1
10
4.000
20
5.627
0
VERTEX
8
1
10
4.180
20
5.550
0
VERTEX
8
1
10
4.292
20
5.509
0
VERTEX
8
1
10
4.425
20
5.497
0
VERTEX
8
1
10
4.462
20
5.495
0
VERTEX
8
1
10
4.517
20
5.481
0
VERTEX
8
1
10
4.602
20
5.409
0
VERTEX
8
1
10
4.697
20
5.313
0
VERTEX
8
1
10
4.753
20
5.227
0
VERTEX
8
1
10
4.866
20
5.076
0
VERTEX
8
1
10
4.904
20
4.971
0
VERTEX
8
1
10
4.971
20
4.813
0
VERTEX
8
1
10
4.998
20
4.762
0
VERTEX
8
1
10
5.051
20
4.644
0
VERTEX
8
1
10
5.086
20
4.568
0
VERTEX
8
1
10
5.089
20
4.558
0
VERTEX
8
1
10
5.081
20
4.540
0
VERTEX
8
1
10
5.056
20
4.526
0
VERTEX
8
1
10
4.999
20
4.517
0
VERTEX
8
1
10
4.849
20
4.545
0
VERTEX
8
1
10
4.418
20
4.636
0
VERTEX
8
1
10
4.243
20
4.670
0
VERTEX
8
1
10
4.223
20
4.670
0
VERTEX
8
1
10
4.147
20
4.657
0
VERTEX
8
1
10
4.086
20
4.625
0
VERTEX
8
1
10
4.058
20
4.589
0
VERTEX
8
1
10
4.030
20
4.566
0
VERTEX
8
1
10
3.998
20
4.573
0
VERTEX
8
1
10
3.924
20
4.593
0
VERTEX
8
1
10
3.871
20
4.600
0
VERTEX
8
1
10
3.794
20
4.584
0
VERTEX
8
1
10
3.744
20
4.562
0
VERTEX
8
1
10
3.728
20
4.559
0
VERTEX
8
1
10
3.736
20
4.573
0
VERTEX
8
1
10
3.768
20
4.609
0
VERTEX
8
1
10
3.769
20
4.633
0
VERTEX
8
1
10
3.784
20
4.666
0
VERTEX
8
1
10
3.816
20
4.701
0
VERTEX
8
1
10
3.904
20
4.716
0
VERTEX
8
1
10
3.952
20
4.743
0
VERTEX
8
1
10
3.974
20
4.785
0
VERTEX
8
1
10
3.974
20
4.838
0
VERTEX
8
1
10
3.968
20
4.862
0
VERTEX
8
1
10
3.881
20
5.046
0
VERTEX
8
1
10
3.755
20
5.363
0
VERTEX
8
1
10
3.699
20
5.507
0
VERTEX
8
1
10
3.650
20
5.666
0
VERTEX
8
1
10
3.645
20
5.702
0
VERTEX
8
1
10
3.653
20
5.723
  0
SEQEND
0
POLYLINE
8
1
6
CONTINUOUS
66
1
70
1
0
VERTEX
8
1
10
4.760
20
5.765
0
VERTEX
8
1
10
4.804
20
5.749
0
VERTEX
8
1
10
4.847
20
5.724
0
VERTEX
8
1
10
5.069
20
5.600
0
VERTEX
8
1
10
5.143
20
5.566
0
VERTEX
8
1
10
5.173
20
5.548
0
VERTEX
8
1
10
5.175
20
5.538
0
VERTEX
8
1
10
5.158
20
5.528
0
VERTEX
8
1
10
5.139
20
5.534
0
VERTEX
8
1
10
5.110
20
5.540
0
VERTEX
8
1
10
5.102
20
5.511
0
VERTEX
8
1
10
5.100
20
5.489
0
VERTEX
8
1
10
5.108
20
5.425
0
VERTEX
8
1
10
5.116
20
5.407
0
VERTEX
8
1
10
5.174
20
5.351
0
VERTEX
8
1
10
5.237
20
5.302
0
VERTEX
8
1
10
5.289
20
5.257
0
VERTEX
8
1
10
5.403
20
5.177
0
VERTEX
8
1
10
5.431
20
5.163
0
VERTEX
8
1
10
5.479
20
5.153
0
VERTEX
8
1
10
5.504
20
5.160
0
VERTEX
8
1
10
5.544
20
5.193
0
VERTEX
8
1
10
5.586
20
5.265
0
VERTEX
8
1
10
5.610
20
5.332
0
VERTEX
8
1
10
5.620
20
5.402
0
VERTEX
8
1
10
5.621
20
5.406
0
VERTEX
8
1
10
5.634
20
5.420
0
VERTEX
8
1
10
5.640
20
5.420
0
VERTEX
8
1
10
5.651
20
5.398
0
VERTEX
8
1
10
5.643
20
5.330
0
VERTEX
8
1
10
5.604
20
5.229
0
VERTEX
8
1
10
5.560
20
5.166
0
VERTEX
8
1
10
5.511
20
5.131
0
VERTEX
8
1
10
5.487
20
5.125
0
VERTEX
8
1
10
5.435
20
5.130
0
VERTEX
8
1
10
5.360
20
5.168
0
VERTEX
8
1
10
5.200
20
5.296
0
VERTEX
8
1
10
5.093
20
5.370
0
VERTEX
8
1
10
5.087
20
5.371
0
VERTEX
8
1
10
5.067
20
5.337
0
VERTEX
8
1
10
5.034
20
5.248
0
VERTEX
8
1
10
5.029
20
5.235
0
VERTEX
8
1
10
5.010
20
5.222
0
VERTEX
8
1
10
5.002
20
5.224
0
VERTEX
8
1
10
4.985
20
5.251
0
VERTEX
8
1
10
4.974
20
5.292
0
VERTEX
8
1
10
4.967
20
5.314
0
VERTEX
8
1
10
4.927
20
5.486
0
VERTEX
8
1
10
4.920
20
5.524
0
VERTEX
8
1
10
4.924
20
5.554
0
VERTEX
8
1
10
4.938
20
5.560
0
VERTEX
8
1
10
4.951
20
5.523
0
VERTEX
8
1
10
4.988
20
5.349
0
VERTEX
8
1
10
5.005
20
5.299
0
VERTEX
8
1
10
5.015
20
5.295
0
VERTEX
8
1
10
5.038
20
5.353
0
VERTEX
8
1
10
5.070
20
5.425
0
VERTEX
8
1
10
5.068
20
5.493
0
VERTEX
8
1
10
5.075
20
5.531
0
VERTEX
8
1
10
5.073
20
5.559
0
VERTEX
8
1
10
5.006
20
5.593
0
VERTEX
8
1
10
4.878
20
5.669
0
VERTEX
8
1
10
4.756
20
5.731
0
VERTEX
8
1
10
4.739
20
5.752
0
VERTEX
8
1
10
4.749
20
5.764
  0
SEQEND
0
POLYLINE
8
1
6
CONTINUOUS
66
1
70
1
0
VERTEX
8
1
10
4.483
20
5.912
0
VERTEX
8
1
10
4.566
20
5.848
0
VERTEX
8
1
10
4.590
20
5.825
0
VERTEX
8
1
10
4.589
20
5.815
0
VERTEX
8
1
10
4.496
20
5.820
0
VERTEX
8
1
10
4.306
20
5.813
0
VERTEX
8
1
10
4.247
20
5.822
0
VERTEX
8
1
10
4.228
20
5.835
0
VERTEX
8
1
10
4.239
20
5.858
0
VERTEX
8
1
10
4.261
20
5.876
0
VERTEX
8
1
10
4.299
20
5.868
0
VERTEX
8
1
10
4.330
20
5.883
0
VERTEX
8
1
10
4.375
20
5.885
0
VERTEX
8
1
10
4.422
20
5.908
0
VERTEX
8
1
10
4.449
20
5.929
  0
SEQEND
0
POLYLINE
8
1
6
CONTINUOUS
66
1
70
1
0
VERTEX
8
1
10
3.707
20
5.948
0
VERTEX
8
1
10
3.719
20
5.938
0
VERTEX
8
1
10
3.713
20
5.903
0
VERTEX
8
1
10
3.685
20
5.881
0
VERTEX
8
1
10
3.644
20
5.863
0
VERTEX
8
1
10
3.631
20
5.866
0
VERTEX
8
1
10
3.632
20
5.884
0
VERTEX
8
1
10
3.679
20
5.918
0
VERTEX
8
1
10
3.695
20
5.945
  0
SEQEND
0
POLYLINE
8
1
6
CONTINUOUS
66
1
70
1
0
VERTEX
8
1
10
4.021
20
5.981
0
VERTEX
8
1
10
4.036
20
5.962
0
VERTEX
8
1
10
4.056
20
5.885
0
VERTEX
8
1
10
4.086
20
5.859
0
VERTEX
8
1
10
4.088
20
5.853
0
VERTEX
8
1
10
4.080
20
5.836
0
VERTEX
8
1
10
4.072
20
5.833
0
VERTEX
8
1
10
4.039
20
5.847
0
VERTEX
8
1
10
4.010
20
5.854
0
VERTEX
8
1
10
3.846
20
5.808
0
VERTEX
8
1
10
3.776
20
5.789
0
VERTEX
8
1
10
3.729
20
5.808
0
VERTEX
8
1
10
3.694
20
5.795
0
VERTEX
8
1
10
3.664
20
5.789
0
VERTEX
8
1
10
3.656
20
5.803
0
VERTEX
8
1
10
3.661
20
5.814
0
VERTEX
8
1
10
3.695
20
5.836
0
VERTEX
8
1
10
3.733
20
5.846
0
VERTEX
8
1
10
3.778
20
5.823
0
VERTEX
8
1
10
3.834
20
5.839
0
VERTEX
8
1
10
3.937
20
5.869
0
VERTEX
8
1
10
4.006
20
5.887
0
VERTEX
8
1
10
4.013
20
5.895
0
VERTEX
8
1
10
4.006
20
5.955
0
VERTEX
8
1
10
4.006
20
5.966
0
VERTEX
8
1
10
4.016
20
5.980
  0
SEQEND
0
POLYLINE
8
1
6
CONTINUOUS
66
1
70
1
0
VERTEX
8
1
10
4.909
20
6.001
0
VERTEX
8
1
10
4.974
20
5.977
0
VERTEX
8
1
10
5.158
20
5.902
0
VERTEX
8
1
10
5.191
20
5.884
0
VERTEX
8
1
10
5.215
20
5.863
0
VERTEX
8
1
10
5.209
20
5.850
0
VERTEX
8
1
10
5.199
20
5.847
0
VERTEX
8
1
10
5.132
20
5.878
0
VERTEX
8
1
10
4.896
20
5.968
0
VERTEX
8
1
10
4.878
20
5.987
0
VERTEX
8
1
10
4.889
20
5.999
  0
SEQEND
0
POLYLINE
8
1
6
CONTINUOUS
66
1
70
1
0
VERTEX
8
1
10
3.260
20
6.027
0
VERTEX
8
1
10
3.325
20
5.984
0
VERTEX
8
1
10
3.435
20
5.871
0
VERTEX
8
1
10
3.507
20
5.817
0
VERTEX
8
1
10
3.531
20
5.806
0
VERTEX
8
1
10
3.561
20
5.784
0
VERTEX
8
1
10
3.552
20
5.724
0
VERTEX
8
1
10
3.552
20
5.707
0
VERTEX
8
1
10
3.571
20
5.610
0
VERTEX
8
1
10
3.650
20
5.400
0
VERTEX
8
1
10
3.757
20
5.125
0
VERTEX
8
1
10
3.815
20
5.008
0
VERTEX
8
1
10
3.873
20
4.873
0
VERTEX
8
1
10
3.886
20
4.833
0
VERTEX
8
1
10
3.887
20
4.798
0
VERTEX
8
1
10
3.870
20
4.786
0
VERTEX
8
1
10
3.851
20
4.787
0
VERTEX
8
1
10
3.816
20
4.818
0
VERTEX
8
1
10
3.789
20
4.836
0
VERTEX
8
1
10
3.745
20
4.837
0
VERTEX
8
1
10
3.715
20
4.829
0
VERTEX
8
1
10
3.684
20
4.857
0
VERTEX
8
1
10
3.630
20
4.869
0
VERTEX
8
1
10
3.588
20
4.868
0
VERTEX
8
1
10
3.556
20
4.877
0
VERTEX
8
1
10
3.549
20
4.882
0
VERTEX
8
1
10
3.497
20
4.955
0
VERTEX
8
1
10
3.401
20
5.104
0
VERTEX
8
1
10
3.093
20
5.570
0
VERTEX
8
1
10
2.934
20
5.792
0
VERTEX
8
1
10
2.894
20
5.849
0
VERTEX
8
1
10
2.882
20
5.872
0
VERTEX
8
1
10
2.901
20
5.877
0
VERTEX
8
1
10
2.910
20
5.877
0
VERTEX
8
1
10
2.957
20
5.892
0
VERTEX
8
1
10
3.004
20
5.933
0
VERTEX
8
1
10
3.035
20
5.944
0
VERTEX
8
1
10
3.080
20
5.963
0
VERTEX
8
1
10
3.138
20
6.022
0
VERTEX
8
1
10
3.177
20
6.040
  0
SEQEND
0
POLYLINE
8
1
6
CONTINUOUS
66
1
70
1
0
VERTEX
8
1
10
2.976
20
6.092
0
VERTEX
8
1
10
3.013
20
6.053
0
VERTEX
8
1
10
3.021
20
6.023
0
VERTEX
8
1
10
3.009
20
6.007
0
VERTEX
8
1
10
3.004
20
6.007
0
VERTEX
8
1
10
2.977
20
6.046
0
VERTEX
8
1
10
2.948
20
6.070
0
VERTEX
8
1
10
2.916
20
6.075
0
VERTEX
8
1
10
2.911
20
6.087
0
VERTEX
8
1
10
2.928
20
6.103
  0
SEQEND
0
POLYLINE
8
1
6
CONTINUOUS
66
1
70
1
0
VERTEX
8
1
10
4.923
20
6.120
0
VERTEX
8
1
10
5.021
20
6.114
0
VERTEX
8
1
10
5.243
20
6.102
0
VERTEX
8
1
10
5.273
20
6.088
0
VERTEX
8
1
10
5.312
20
6.078
0
VERTEX
8
1
10
5.316
20
6.065
0
VERTEX
8
1
10
5.311
20
6.042
0
VERTEX
8
1
10
5.284
20
6.052
0
VERTEX
8
1
10
5.264
20
6.061
0
VERTEX
8
1
10
5.212
20
6.072
0
VERTEX
8
1
10
4.956
20
6.086
0
VERTEX
8
1
10
4.871
20
6.090
0
VERTEX
8
1
10
4.864
20
6.093
0
VERTEX
8
1
10
4.858
20
6.108
0
VERTEX
8
1
10
4.875
20
6.122
  0
SEQEND
0
POLYLINE
8
1
6
CONTINUOUS
66
1
70
1
0
VERTEX
8
1
10
5.104
20
6.428
0
VERTEX
8
1
10
5.193
20
6.405
0
VERTEX
8
1
10
5.267
20
6.363
0
VERTEX
8
1
10
5.328
20
6.303
0
VERTEX
8
1
10
5.369
20
6.227
0
VERTEX
8
1
10
5.383
20
6.129
0
VERTEX
8
1
10
5.379
20
6.097
0
VERTEX
8
1
10
5.431
20
6.040
0
VERTEX
8
1
10
5.442
20
6.008
0
VERTEX
8
1
10
5.427
20
5.986
0
VERTEX
8
1
10
5.379
20
6.001
0
VERTEX
8
1
10
5.358
20
6.005
0
VERTEX
8
1
10
5.349
20
5.975
0
VERTEX
8
1
10
5.341
20
5.939
0
VERTEX
8
1
10
5.323
20
5.900
0
VERTEX
8
1
10
5.306
20
5.889
0
VERTEX
8
1
10
5.297
20
5.871
0
VERTEX
8
1
10
5.324
20
5.848
0
VERTEX
8
1
10
5.405
20
5.806
0
VERTEX
8
1
10
5.525
20
5.728
0
VERTEX
8
1
10
5.542
20
5.713
0
VERTEX
8
1
10
5.628
20
5.603
0
VERTEX
8
1
10
5.654
20
5.561
0
VERTEX
8
1
10
5.747
20
5.325
0
VERTEX
8
1
10
5.796
20
5.208
0
VERTEX
8
1
10
5.966
20
4.792
0
VERTEX
8
1
10
5.995
20
4.714
0
VERTEX
8
1
10
6.172
20
4.278
0
VERTEX
8
1
10
6.178
20
4.263
0
VERTEX
8
1
10
6.212
20
4.160
0
VERTEX
8
1
10
6.210
20
4.130
0
VERTEX
8
1
10
6.222
20
4.116
0
VERTEX
8
1
10
6.300
20
4.109
0
VERTEX
8
1
10
6.491
20
4.084
0
VERTEX
8
1
10
6.549
20
4.073
0
VERTEX
8
1
10
6.582
20
4.075
0
VERTEX
8
1
10
6.600
20
4.101
0
VERTEX
8
1
10
6.657
20
4.171
0
VERTEX
8
1
10
6.861
20
4.419
0
VERTEX
8
1
10
7.553
20
5.265
0
VERTEX
8
1
10
7.836
20
5.612
0
VERTEX
8
1
10
7.899
20
5.689
0
VERTEX
8
1
10
7.930
20
5.719
0
VERTEX
8
1
10
7.983
20
5.711
0
VERTEX
8
1
10
8.006
20
5.695
0
VERTEX
8
1
10
8.003
20
5.667
0
VERTEX
8
1
10
7.967
20
5.610
0
VERTEX
8
1
10
7.774
20
5.321
0
VERTEX
8
1
10
7.194
20
4.453
0
VERTEX
8
1
10
7.023
20
4.197
0
VERTEX
8
1
10
6.979
20
4.136
0
VERTEX
8
1
10
6.950
20
4.080
0
VERTEX
8
1
10
6.969
20
4.051
0
VERTEX
8
1
10
6.986
20
4.027
0
VERTEX
8
1
10
6.973
20
3.971
0
VERTEX
8
1
10
6.946
20
3.868
0
VERTEX
8
1
10
6.937
20
3.832
0
VERTEX
8
1
10
6.941
20
3.813
0
VERTEX
8
1
10
6.995
20
3.804
0
VERTEX
8
1
10
7.048
20
3.807
0
VERTEX
8
1
10
7.212
20
3.801
0
VERTEX
8
1
10
7.256
20
3.802
0
VERTEX
8
1
10
7.324
20
3.792
0
VERTEX
8
1
10
7.345
20
3.781
0
VERTEX
8
1
10
7.396
20
3.734
0
VERTEX
8
1
10
7.417
20
3.693
0
VERTEX
8
1
10
7.414
20
3.670
0
VERTEX
8
1
10
7.380
20
3.638
0
VERTEX
8
1
10
7.335
20
3.611
0
VERTEX
8
1
10
7.282
20
3.567
0
VERTEX
8
1
10
7.272
20
3.554
0
VERTEX
8
1
10
7.263
20
3.525
0
VERTEX
8
1
10
7.268
20
3.510
0
VERTEX
8
1
10
7.298
20
3.497
0
VERTEX
8
1
10
7.327
20
3.482
0
VERTEX
8
1
10
7.340
20
3.451
0
VERTEX
8
1
10
7.344
20
3.327
0
VERTEX
8
1
10
7.347
20
3.308
0
VERTEX
8
1
10
7.347
20
3.269
0
VERTEX
8
1
10
7.342
20
3.263
0
VERTEX
8
1
10
7.312
20
3.260
0
VERTEX
8
1
10
7.216
20
3.290
0
VERTEX
8
1
10
7.192
20
3.296
0
VERTEX
8
1
10
7.174
20
3.291
0
VERTEX
8
1
10
7.178
20
3.260
0
VERTEX
8
1
10
7.192
20
3.187
0
VERTEX
8
1
10
7.206
20
3.081
0
VERTEX
8
1
10
7.204
20
2.955
0
VERTEX
8
1
10
7.199
20
2.920
0
VERTEX
8
1
10
7.151
20
2.736
0
VERTEX
8
1
10
7.137
20
2.691
0
VERTEX
8
1
10
7.092
20
2.577
0
VERTEX
8
1
10
7.061
20
2.526
0
VERTEX
8
1
10
6.972
20
2.409
0
VERTEX
8
1
10
6.861
20
2.303
0
VERTEX
8
1
10
6.741
20
2.220
0
VERTEX
8
1
10
6.631
20
2.163
0
VERTEX
8
1
10
6.534
20
2.133
0
VERTEX
8
1
10
6.387
20
2.121
0
VERTEX
8
1
10
6.246
20
2.134
0
VERTEX
8
1
10
6.101
20
2.172
0
VERTEX
8
1
10
5.964
20
2.231
0
VERTEX
8
1
10
5.834
20
2.315
0
VERTEX
8
1
10
5.751
20
2.382
0
VERTEX
8
1
10
5.655
20
2.479
0
VERTEX
8
1
10
5.619
20
2.537
0
VERTEX
8
1
10
5.617
20
2.541
0
VERTEX
8
1
10
5.601
20
2.556
0
VERTEX
8
1
10
5.509
20
2.535
0
VERTEX
8
1
10
5.363
20
2.494
0
VERTEX
8
1
10
5.277
20
2.466
0
VERTEX
8
1
10
5.196
20
2.406
0
VERTEX
8
1
10
5.147
20
2.386
0
VERTEX
8
1
10
5.059
20
2.409
0
VERTEX
8
1
10
4.831
20
2.395
0
VERTEX
8
1
10
4.789
20
2.395
0
VERTEX
8
1
10
4.727
20
2.388
0
VERTEX
8
1
10
4.691
20
2.366
0
VERTEX
8
1
10
4.656
20
2.355
0
VERTEX
8
1
10
4.602
20
2.380
0
VERTEX
8
1
10
4.516
20
2.384
0
VERTEX
8
1
10
4.451
20
2.348
0
VERTEX
8
1
10
4.433
20
2.337
0
VERTEX
8
1
10
4.364
20
2.315
0
VERTEX
8
1
10
4.128
20
2.307
0
VERTEX
8
1
10
3.891
20
2.296
0
VERTEX
8
1
10
3.776
20
2.287
0
VERTEX
8
1
10
3.462
20
2.272
0
VERTEX
8
1
10
3.377
20
2.275
0
VERTEX
8
1
10
3.307
20
2.292
0
VERTEX
8
1
10
3.254
20
2.328
0
VERTEX
8
1
10
3.239
20
2.349
0
VERTEX
8
1
10
3.242
20
2.377
0
VERTEX
8
1
10
3.298
20
2.435
0
VERTEX
8
1
10
3.367
20
2.514
0
VERTEX
8
1
10
3.441
20
2.626
0
VERTEX
8
1
10
3.481
20
2.722
0
VERTEX
8
1
10
3.484
20
2.738
0
VERTEX
8
1
10
3.475
20
2.843
0
VERTEX
8
1
10
3.441
20
3.090
0
VERTEX
8
1
10
3.339
20
3.805
0
VERTEX
8
1
10
3.303
20
4.052
0
VERTEX
8
1
10
3.293
20
4.111
0
VERTEX
8
1
10
3.293
20
4.114
0
VERTEX
8
1
10
3.283
20
4.128
0
VERTEX
8
1
10
3.242
20
4.104
0
VERTEX
8
1
10
3.201
20
4.097
0
VERTEX
8
1
10
3.110
20
4.010
0
VERTEX
8
1
10
2.733
20
3.640
0
VERTEX
8
1
10
2.230
20
3.148
0
VERTEX
8
1
10
2.080
20
3.001
0
VERTEX
8
1
10
2.047
20
2.972
0
VERTEX
8
1
10
2.013
20
2.933
0
VERTEX
8
1
10
2.022
20
2.891
0
VERTEX
8
1
10
2.049
20
2.791
0
VERTEX
8
1
10
2.070
20
2.634
0
VERTEX
8
1
10
2.067
20
2.470
0
VERTEX
8
1
10
2.011
20
2.220
0
VERTEX
8
1
10
1.952
20
2.090
0
VERTEX
8
1
10
1.868
20
1.959
0
VERTEX
8
1
10
1.765
20
1.841
0
VERTEX
8
1
10
1.656
20
1.750
0
VERTEX
8
1
10
1.536
20
1.675
0
VERTEX
8
1
10
1.404
20
1.619
0
VERTEX
8
1
10
1.263
20
1.584
0
VERTEX
8
1
10
1.114
20
1.571
0
VERTEX
8
1
10
0.947
20
1.586
0
VERTEX
8
1
10
0.803
20
1.625
0
VERTEX
8
1
10
0.675
20
1.682
0
VERTEX
8
1
10
0.547
20
1.764
0
VERTEX
8
1
10
0.369
20
1.940
0
VERTEX
8
1
10
0.292
20
2.057
0
VERTEX
8
1
10
0.231
20
2.183
0
VERTEX
8
1
10
0.185
20
2.332
0
VERTEX
8
1
10
0.161
20
2.487
0
VERTEX
8
1
10
0.159
20
2.643
0
VERTEX
8
1
10
0.181
20
2.797
0
VERTEX
8
1
10
0.225
20
2.947
0
VERTEX
8
1
10
0.284
20
3.074
0
VERTEX
8
1
10
0.361
20
3.192
0
VERTEX
8
1
10
0.470
20
3.312
0
VERTEX
8
1
10
0.669
20
3.455
0
VERTEX
8
1
10
0.802
20
3.515
0
VERTEX
8
1
10
0.942
20
3.553
0
VERTEX
8
1
10
1.087
20
3.569
0
VERTEX
8
1
10
1.234
20
3.563
0
VERTEX
8
1
10
1.381
20
3.531
0
VERTEX
8
1
10
1.466
20
3.501
0
VERTEX
8
1
10
1.599
20
3.433
0
VERTEX
8
1
10
1.723
20
3.343
0
VERTEX
8
1
10
1.790
20
3.279
0
VERTEX
8
1
10
1.807
20
3.266
0
VERTEX
8
1
10
1.824
20
3.269
0
VERTEX
8
1
10
1.943
20
3.388
0
VERTEX
8
1
10
2.205
20
3.649
0
VERTEX
8
1
10
2.667
20
4.109
0
VERTEX
8
1
10
2.870
20
4.313
0
VERTEX
8
1
10
2.903
20
4.381
0
VERTEX
8
1
10
2.981
20
4.444
0
VERTEX
8
1
10
3.174
20
4.609
0
VERTEX
8
1
10
3.242
20
4.668
0
VERTEX
8
1
10
3.272
20
4.698
0
VERTEX
8
1
10
3.273
20
4.707
0
VERTEX
8
1
10
3.256
20
4.713
0
VERTEX
8
1
10
3.214
20
4.705
0
VERTEX
8
1
10
3.154
20
4.704
0
VERTEX
8
1
10
3.121
20
4.723
0
VERTEX
8
1
10
3.114
20
4.732
0
VERTEX
8
1
10
3.103
20
4.799
0
VERTEX
8
1
10
3.080
20
4.942
0
VERTEX
8
1
10
3.091
20
4.997
0
VERTEX
8
1
10
3.112
20
5.024
0
VERTEX
8
1
10
3.158
20
5.045
0
VERTEX
8
1
10
3.230
20
5.049
0
VERTEX
8
1
10
3.296
20
5.035
0
VERTEX
8
1
10
3.352
20
5.009
0
VERTEX
8
1
10
3.359
20
5.006
0
VERTEX
8
1
10
3.370
20
5.006
0
VERTEX
8
1
10
3.339
20
5.059
0
VERTEX
8
1
10
3.240
20
5.206
0
VERTEX
8
1
10
3.191
20
5.281
0
VERTEX
8
1
10
2.848
20
5.770
0
VERTEX
8
1
10
2.796
20
5.845
0
VERTEX
8
1
10
2.763
20
5.918
0
VERTEX
8
1
10
2.758
20
5.974
0
VERTEX
8
1
10
2.777
20
6.027
0
VERTEX
8
1
10
2.843
20
6.090
0
VERTEX
8
1
10
2.870
20
6.152
0
VERTEX
8
1
10
2.896
20
6.184
0
VERTEX
8
1
10
2.939
20
6.200
0
VERTEX
8
1
10
3.074
20
6.195
0
VERTEX
8
1
10
3.115
20
6.196
0
VERTEX
8
1
10
3.220
20
6.189
0
VERTEX
8
1
10
3.325
20
6.147
0
VERTEX
8
1
10
3.523
20
6.068
0
VERTEX
8
1
10
3.702
20
5.998
0
VERTEX
8
1
10
3.753
20
5.979
0
VERTEX
8
1
10
3.785
20
5.980
0
VERTEX
8
1
10
3.820
20
5.993
0
VERTEX
8
1
10
3.847
20
6.029
0
VERTEX
8
1
10
3.875
20
6.047
0
VERTEX
8
1
10
3.984
20
6.052
0
VERTEX
8
1
10
4.052
20
6.061
0
VERTEX
8
1
10
4.083
20
6.090
0
VERTEX
8
1
10
4.135
20
6.129
0
VERTEX
8
1
10
4.245
20
6.147
0
VERTEX
8
1
10
4.350
20
6.172
0
VERTEX
8
1
10
4.433
20
6.181
0
VERTEX
8
1
10
4.452
20
6.178
0
VERTEX
8
1
10
4.541
20
6.131
0
VERTEX
8
1
10
4.694
20
6.063
0
VERTEX
8
1
10
4.754
20
6.041
0
VERTEX
8
1
10
4.777
20
6.035
0
VERTEX
8
1
10
4.789
20
6.060
0
VERTEX
8
1
10
4.779
20
6.087
0
VERTEX
8
1
10
4.722
20
6.095
0
VERTEX
8
1
10
4.699
20
6.108
0
VERTEX
8
1
10
4.698
20
6.130
0
VERTEX
8
1
10
4.727
20
6.171
0
VERTEX
8
1
10
4.756
20
6.204
0
VERTEX
8
1
10
4.813
20
6.290
0
VERTEX
8
1
10
4.883
20
6.367
0
VERTEX
8
1
10
4.948
20
6.410
0
VERTEX
8
1
10
5.019
20
6.429
  0
SEQEND
  0
ENDSEC
  0
EOF
