  0
SECTION
  2
HEADER
  9
$ACADVER
  1
AC1021
  9
$ACADMAINTVER
 70
    25
  9
$DWGCODEPAGE
  3
ANSI_1252
  9
$INSBASE
 10
0.0
 20
0.0
 30
0.0
  9
$EXTMIN
 10
-244.1758
 20
-194.407
 30
0.0
  9
$EXTMAX
 10
-8.6201
 20
323.2786
 30
0.0
  9
$LIMMIN
 10
0.0
 20
0.0
  9
$LIMMAX
 10
12.0
 20
9.0
  9
$ORTHOMODE
 70
     0
  9
$REGENMODE
 70
     1
  9
$FILLMODE
 70
     1
  9
$QTEXTMODE
 70
     0
  9
$MIRRTEXT
 70
     1
  9
$LTSCALE
 40
1.0
  9
$ATTMODE
 70
     1
  9
$TEXTSIZE
 40
0.2
  9
$TRACEWID
 40
0.05
  9
$TEXTSTYLE
  7
Standard
  9
$CLAYER
  8
0
  9
$CELTYPE
  6
ByLayer
  9
$CECOLOR
 62
   256
  9
$CELTSCALE
 40
1.0
  9
$DISPSILH
 70
     0
  9
$DIMSCALE
 40
1.0
  9
$DIMASZ
 40
0.18
  9
$DIMEXO
 40
0.0625
  9
$DIMDLI
 40
0.38
  9
$DIMRND
 40
0.0
  9
$DIMDLE
 40
0.0
  9
$DIMEXE
 40
0.18
  9
$DIMTP
 40
0.0
  9
$DIMTM
 40
0.0
  9
$DIMTXT
 40
0.18
  9
$DIMCEN
 40
0.09
  9
$DIMTSZ
 40
0.0
  9
$DIMTOL
 70
     0
  9
$DIMLIM
 70
     0
  9
$DIMTIH
 70
     1
  9
$DIMTOH
 70
     1
  9
$DIMSE1
 70
     0
  9
$DIMSE2
 70
     0
  9
$DIMTAD
 70
     0
  9
$DIMZIN
 70
     0
  9
$DIMBLK
  1

  9
$DIMASO
 70
     1
  9
$DIMSHO
 70
     1
  9
$DIMPOST
  1

  9
$DIMAPOST
  1

  9
$DIMALT
 70
     0
  9
$DIMALTD
 70
     2
  9
$DIMALTF
 40
25.4
  9
$DIMLFAC
 40
1.0
  9
$DIMTOFL
 70
     0
  9
$DIMTVP
 40
0.0
  9
$DIMTIX
 70
     0
  9
$DIMSOXD
 70
     0
  9
$DIMSAH
 70
     0
  9
$DIMBLK1
  1

  9
$DIMBLK2
  1

  9
$DIMSTYLE
  2
Standard
  9
$DIMCLRD
 70
     0
  9
$DIMCLRE
 70
     0
  9
$DIMCLRT
 70
     0
  9
$DIMTFAC
 40
1.0
  9
$DIMGAP
 40
0.09
  9
$DIMJUST
 70
     0
  9
$DIMSD1
 70
     0
  9
$DIMSD2
 70
     0
  9
$DIMTOLJ
 70
     1
  9
$DIMTZIN
 70
     0
  9
$DIMALTZ
 70
     0
  9
$DIMALTTZ
 70
     0
  9
$DIMUPT
 70
     0
  9
$DIMDEC
 70
     4
  9
$DIMTDEC
 70
     4
  9
$DIMALTU
 70
     2
  9
$DIMALTTD
 70
     2
  9
$DIMTXSTY
  7
Standard
  9
$DIMAUNIT
 70
     0
  9
$DIMADEC
 70
     0
  9
$DIMALTRND
 40
0.0
  9
$DIMAZIN
 70
     0
  9
$DIMDSEP
 70
    46
  9
$DIMATFIT
 70
     3
  9
$DIMFRAC
 70
     0
  9
$DIMLDRBLK
  1

  9
$DIMLUNIT
 70
     2
  9
$DIMLWD
 70
    -2
  9
$DIMLWE
 70
    -2
  9
$DIMTMOVE
 70
     0
  9
$DIMFXL
 40
1.0
  9
$DIMFXLON
 70
     0
  9
$DIMJOGANG
 40
0.7853981633974483
  9
$DIMTFILL
 70
     0
  9
$DIMTFILLCLR
 70
     0
  9
$DIMARCSYM
 70
     0
  9
$DIMLTYPE
  6

  9
$DIMLTEX1
  6

  9
$DIMLTEX2
  6

  9
$LUNITS
 70
     2
  9
$LUPREC
 70
     4
  9
$SKETCHINC
 40
0.1
  9
$FILLETRAD
 40
0.5
  9
$AUNITS
 70
     0
  9
$AUPREC
 70
     0
  9
$MENU
  1
.
  9
$ELEVATION
 40
0.0
  9
$PELEVATION
 40
0.0
  9
$THICKNESS
 40
0.0
  9
$LIMCHECK
 70
     0
  9
$CHAMFERA
 40
0.5
  9
$CHAMFERB
 40
0.5
  9
$CHAMFERC
 40
1.0
  9
$CHAMFERD
 40
0.0
  9
$SKPOLY
 70
     0
  9
$TDCREATE
 40
2458415.028503299
  9
$TDUCREATE
 40
2458414.695169965
  9
$TDUPDATE
 40
2458415.02850331
  9
$TDUUPDATE
 40
2458414.695169977
  9
$TDINDWG
 40
0.0000000116
  9
$TDUSRTIMER
 40
0.0000000116
  9
$USRTIMER
 70
     1
  9
$ANGBASE
 50
0.0
  9
$ANGDIR
 70
     0
  9
$PDMODE
 70
     0
  9
$PDSIZE
 40
0.0
  9
$PLINEWID
 40
0.0
  9
$SPLFRAME
 70
     0
  9
$SPLINETYPE
 70
     6
  9
$SPLINESEGS
 70
     8
  9
$HANDSEED
  5
8D
  9
$SURFTAB1
 70
     6
  9
$SURFTAB2
 70
     6
  9
$SURFTYPE
 70
     6
  9
$SURFU
 70
     6
  9
$SURFV
 70
     6
  9
$UCSBASE
  2

  9
$UCSNAME
  2

  9
$UCSORG
 10
0.0
 20
0.0
 30
0.0
  9
$UCSXDIR
 10
1.0
 20
0.0
 30
0.0
  9
$UCSYDIR
 10
0.0
 20
1.0
 30
0.0
  9
$UCSORTHOREF
  2

  9
$UCSORTHOVIEW
 70
     0
  9
$UCSORGTOP
 10
0.0
 20
0.0
 30
0.0
  9
$UCSORGBOTTOM
 10
0.0
 20
0.0
 30
0.0
  9
$UCSORGLEFT
 10
0.0
 20
0.0
 30
0.0
  9
$UCSORGRIGHT
 10
0.0
 20
0.0
 30
0.0
  9
$UCSORGFRONT
 10
0.0
 20
0.0
 30
0.0
  9
$UCSORGBACK
 10
0.0
 20
0.0
 30
0.0
  9
$PUCSBASE
  2

  9
$PUCSNAME
  2

  9
$PUCSORG
 10
0.0
 20
0.0
 30
0.0
  9
$PUCSXDIR
 10
1.0
 20
0.0
 30
0.0
  9
$PUCSYDIR
 10
0.0
 20
1.0
 30
0.0
  9
$PUCSORTHOREF
  2

  9
$PUCSORTHOVIEW
 70
     0
  9
$PUCSORGTOP
 10
0.0
 20
0.0
 30
0.0
  9
$PUCSORGBOTTOM
 10
0.0
 20
0.0
 30
0.0
  9
$PUCSORGLEFT
 10
0.0
 20
0.0
 30
0.0
  9
$PUCSORGRIGHT
 10
0.0
 20
0.0
 30
0.0
  9
$PUCSORGFRONT
 10
0.0
 20
0.0
 30
0.0
  9
$PUCSORGBACK
 10
0.0
 20
0.0
 30
0.0
  9
$USERI1
 70
     0
  9
$USERI2
 70
     0
  9
$USERI3
 70
     0
  9
$USERI4
 70
     0
  9
$USERI5
 70
     0
  9
$USERR1
 40
0.0
  9
$USERR2
 40
0.0
  9
$USERR3
 40
0.0
  9
$USERR4
 40
0.0
  9
$USERR5
 40
0.0
  9
$WORLDVIEW
 70
     1
  9
$SHADEDGE
 70
     3
  9
$SHADEDIF
 70
    70
  9
$TILEMODE
 70
     1
  9
$MAXACTVP
 70
    64
  9
$PINSBASE
 10
0.0
 20
0.0
 30
0.0
  9
$PLIMCHECK
 70
     0
  9
$PEXTMIN
 10
1.000000000000000E+20
 20
1.000000000000000E+20
 30
1.000000000000000E+20
  9
$PEXTMAX
 10
-1.000000000000000E+20
 20
-1.000000000000000E+20
 30
-1.000000000000000E+20
  9
$PLIMMIN
 10
0.0
 20
0.0
  9
$PLIMMAX
 10
12.0
 20
9.0
  9
$UNITMODE
 70
     0
  9
$VISRETAIN
 70
     1
  9
$PLINEGEN
 70
     0
  9
$PSLTSCALE
 70
     1
  9
$TREEDEPTH
 70
  3020
  9
$CMLSTYLE
  2
Standard
  9
$CMLJUST
 70
     0
  9
$CMLSCALE
 40
1.0
  9
$PROXYGRAPHICS
 70
     1
  9
$MEASUREMENT
 70
     0
  9
$CELWEIGHT
370
    -1
  9
$ENDCAPS
280
     0
  9
$JOINSTYLE
280
     0
  9
$LWDISPLAY
290
     0
  9
$INSUNITS
 70
     4
  9
$HYPERLINKBASE
  1

  9
$STYLESHEET
  1

  9
$XEDIT
290
     1
  9
$CEPSNTYPE
380
     0
  9
$PSTYLEMODE
290
     1
  9
$FINGERPRINTGUID
  2
{82780EC9-251E-46F3-9D51-B518C58C2E64}
  9
$VERSIONGUID
  2
{FAEB1C32-E019-11D5-929B-00C0DF256EC4}
  9
$EXTNAMES
290
     1
  9
$PSVPSCALE
 40
0.0
  9
$OLESTARTUP
290
     0
  9
$SORTENTS
280
   127
  9
$INDEXCTL
280
     0
  9
$HIDETEXT
280
     1
  9
$XCLIPFRAME
290
     0
  9
$HALOGAP
280
     0
  9
$OBSCOLOR
 70
   257
  9
$OBSLTYPE
280
     0
  9
$INTERSECTIONDISPLAY
280
     0
  9
$INTERSECTIONCOLOR
 70
   257
  9
$DIMASSOC
280
     2
  9
$PROJECTNAME
  1

  9
$CAMERADISPLAY
290
     0
  9
$LENSLENGTH
 40
50.0
  9
$CAMERAHEIGHT
 40
0.0
  9
$STEPSPERSEC
 40
2.0
  9
$STEPSIZE
 40
6.0
  9
$3DDWFPREC
 40
2.0
  9
$PSOLWIDTH
 40
0.25
  9
$PSOLHEIGHT
 40
4.0
  9
$LOFTANG1
 40
1.570796326794897
  9
$LOFTANG2
 40
1.570796326794897
  9
$LOFTMAG1
 40
0.0
  9
$LOFTMAG2
 40
0.0
  9
$LOFTPARAM
 70
     7
  9
$LOFTNORMALS
280
     1
  9
$LATITUDE
 40
37.795
  9
$LONGITUDE
 40
-122.394
  9
$NORTHDIRECTION
 40
0.0
  9
$TIMEZONE
 70
 -8000
  9
$LIGHTGLYPHDISPLAY
280
     1
  9
$TILEMODELIGHTSYNCH
280
     1
  9
$SOLIDHIST
280
     1
  9
$SHOWHIST
280
     1
  9
$DWFFRAME
280
     2
  9
$DGNFRAME
280
     2
  9
$REALWORLDSCALE
290
     1
  9
$INTERFERECOLOR
 62
   256
  9
$CSHADOW
280
     0
  9
$SHADOWPLANELOCATION
 40
0.0
  0
ENDSEC
  0
SECTION
  2
CLASSES
  0
CLASS
  1
ACDBDICTIONARYWDFLT
  2
AcDbDictionaryWithDefault
  3
ObjectDBX Classes
 90
        0
 91
        4
280
     0
281
     0
  0
CLASS
  1
VISUALSTYLE
  2
AcDbVisualStyle
  3
ObjectDBX Classes
 90
     4095
 91
        4
280
     0
281
     0
  0
CLASS
  1
MATERIAL
  2
AcDbMaterial
  3
ObjectDBX Classes
 90
     1153
 91
        4
280
     0
281
     0
  0
ENDSEC
  0
SECTION
  2
TABLES
  0
TABLE
  2
VPORT
  5
8
330
0
100
AcDbSymbolTable
 70
     1
  0
VPORT
  5
29
330
8
100
AcDbSymbolTableRecord
100
AcDbViewportTableRecord
  2
*Active
 70
     0
 10
0.0
 20
0.0
 11
1.0
 21
1.0
 12
10.42990654205607
 22
4.5
 13
0.0
 23
0.0
 14
0.5
 24
0.5
 15
0.5
 25
0.5
 16
0.0
 26
0.0
 36
1.0
 17
0.0
 27
0.0
 37
0.0
 40
9.0
 41
1.972972972850329
 42
50.0
 43
0.0
 44
0.0
 50
0.0
 51
0.0
 71
     0
 72
   100
 73
     1
 74
     3
 75
     0
 76
     0
 77
     0
 78
     0
281
     0
 65
     1
110
0.0
120
0.0
130
0.0
111
1.0
121
0.0
131
0.0
112
0.0
122
1.0
132
0.0
 79
     0
146
0.0
 60
     3
 61
     5
292
     1
282
     1
141
0.0
142
0.0
 63
   250
  0
ENDTAB
  0
TABLE
  2
LTYPE
  5
5
330
0
100
AcDbSymbolTable
 70
     1
  0
LTYPE
  5
14
330
5
100
AcDbSymbolTableRecord
100
AcDbLinetypeTableRecord
  2
ByBlock
 70
     0
  3

 72
    65
 73
     0
 40
0.0
  0
LTYPE
  5
15
330
5
100
AcDbSymbolTableRecord
100
AcDbLinetypeTableRecord
  2
ByLayer
 70
     0
  3

 72
    65
 73
     0
 40
0.0
  0
LTYPE
  5
16
330
5
100
AcDbSymbolTableRecord
100
AcDbLinetypeTableRecord
  2
Continuous
 70
     0
  3
Solid line
 72
    65
 73
     0
 40
0.0
  0
ENDTAB
  0
TABLE
  2
LAYER
  5
2
330
0
100
AcDbSymbolTable
 70
     2
  0
LAYER
  5
10
330
2
100
AcDbSymbolTableRecord
100
AcDbLayerTableRecord
  2
0
 70
     0
 62
     7
  6
Continuous
370
    -3
390
F
347
3E
  0
LAYER
  5
40
330
2
100
AcDbSymbolTableRecord
100
AcDbLayerTableRecord
  2
Layer 1
 70
     0
 62
     7
  6
Continuous
370
    -3
390
F
347
3E
  0
ENDTAB
  0
TABLE
  2
STYLE
  5
3
330
0
100
AcDbSymbolTable
 70
     1
  0
STYLE
  5
11
330
3
100
AcDbSymbolTableRecord
100
AcDbTextStyleTableRecord
  2
Standard
 70
     0
 40
0.0
 41
1.0
 50
0.0
 71
     0
 42
0.2
  3
txt
  4

  0
ENDTAB
  0
TABLE
  2
VIEW
  5
6
330
0
100
AcDbSymbolTable
 70
     0
  0
ENDTAB
  0
TABLE
  2
UCS
  5
7
330
0
100
AcDbSymbolTable
 70
     0
  0
ENDTAB
  0
TABLE
  2
APPID
  5
9
330
0
100
AcDbSymbolTable
 70
     2
  0
APPID
  5
12
330
9
100
AcDbSymbolTableRecord
100
AcDbRegAppTableRecord
  2
ACAD
 70
     0
  0
APPID
  5
3F
330
9
100
AcDbSymbolTableRecord
100
AcDbRegAppTableRecord
  2
ODA
 70
     0
  0
ENDTAB
  0
TABLE
  2
DIMSTYLE
  5
A
330
0
100
AcDbSymbolTable
 70
     1
100
AcDbDimStyleTable
  0
DIMSTYLE
105
27
330
A
100
AcDbSymbolTableRecord
100
AcDbDimStyleTableRecord
  2
Standard
 70
     0
340
11
  0
ENDTAB
  0
TABLE
  2
BLOCK_RECORD
  5
1
330
0
100
AcDbSymbolTable
 70
     1
  0
BLOCK_RECORD
  5
1F
330
1
100
AcDbSymbolTableRecord
100
AcDbBlockTableRecord
  2
*Model_Space
340
22
 70
     0
280
     1
281
     0
  0
BLOCK_RECORD
  5
1B
330
1
100
AcDbSymbolTableRecord
100
AcDbBlockTableRecord
  2
*Paper_Space
340
1E
 70
     0
280
     1
281
     0
  0
BLOCK_RECORD
  5
23
330
1
100
AcDbSymbolTableRecord
100
AcDbBlockTableRecord
  2
*Paper_Space0
340
26
 70
     0
280
     1
281
     0
  0
ENDTAB
  0
ENDSEC
  0
SECTION
  2
BLOCKS
  0
BLOCK
  5
20
330
1F
100
AcDbEntity
  8
0
100
AcDbBlockBegin
  2
*Model_Space
 70
     0
 10
0.0
 20
0.0
 30
0.0
  3
*Model_Space
  1

  0
ENDBLK
  5
21
330
1F
100
AcDbEntity
  8
0
100
AcDbBlockEnd
  0
BLOCK
  5
1C
330
1B
100
AcDbEntity
 67
     1
  8
0
100
AcDbBlockBegin
  2
*Paper_Space
 70
     0
 10
0.0
 20
0.0
 30
0.0
  3
*Paper_Space
  1

  0
ENDBLK
  5
1D
330
1B
100
AcDbEntity
 67
     1
  8
0
100
AcDbBlockEnd
  0
BLOCK
  5
24
330
23
100
AcDbEntity
  8
0
100
AcDbBlockBegin
  2
*Paper_Space0
 70
     0
 10
0.0
 20
0.0
 30
0.0
  3
*Paper_Space0
  1

  0
ENDBLK
  5
25
330
23
100
AcDbEntity
  8
0
100
AcDbBlockEnd
  0
ENDSEC
  0
SECTION
  2
ENTITIES
  0
SPLINE
  5
41
330
1F
100
AcDbEntity
  8
Layer 1
 62
   250
100
AcDbSpline
210
0.0
220
0.0
230
1.0
 70
    11
 71
     3
 72
    16
 73
    12
 74
     0
 42
0.0000000001
 43
0.0000000001
 40
0.0
 40
0.0
 40
0.0
 40
0.0
 40
0.25
 40
0.25
 40
0.25
 40
0.25
 40
0.5
 40
0.5
 40
0.5
 40
0.5
 40
1.0
 40
1.0
 40
1.0
 40
1.0
 10
-220.4188
 20
-78.6455
 30
0.0
 10
-220.4188
 20
-78.6455
 30
0.0
 10
-211.423
 20
-112.2476
 30
0.0
 10
-211.423
 20
-112.2476
 30
0.0
 10
-211.423
 20
-112.2476
 30
0.0
 10
-211.423
 20
-112.2476
 30
0.0
 10
-230.473
 20
-99.0185
 30
0.0
 10
-230.473
 20
-99.0185
 30
0.0
 10
-230.473
 20
-99.0185
 30
0.0
 10
-228.6321
 20
-87.4476
 30
0.0
 10
-228.8423
 20
-77.0064
 30
0.0
 10
-220.4188
 20
-78.6455
 30
0.0
  0
SPLINE
  5
42
330
1F
100
AcDbEntity
  8
Layer 1
 62
   250
100
AcDbSpline
210
0.0
220
0.0
230
1.0
 70
    11
 71
     3
 72
   104
 73
   100
 74
     0
 42
0.0000000001
 43
0.0000000001
 40
0.0
 40
0.0
 40
0.0
 40
0.0
 40
0.0384615384615385
 40
0.0384615384615385
 40
0.0384615384615385
 40
0.0384615384615385
 40
0.0769230769230769
 40
0.0769230769230769
 40
0.0769230769230769
 40
0.0769230769230769
 40
0.1153846153846154
 40
0.1153846153846154
 40
0.1153846153846154
 40
0.1153846153846154
 40
0.1538461538461539
 40
0.1538461538461539
 40
0.1538461538461539
 40
0.1538461538461539
 40
0.1923076923076923
 40
0.1923076923076923
 40
0.1923076923076923
 40
0.1923076923076923
 40
0.2307692307692308
 40
0.2307692307692308
 40
0.2307692307692308
 40
0.2307692307692308
 40
0.2692307692307692
 40
0.2692307692307692
 40
0.2692307692307692
 40
0.2692307692307692
 40
0.3076923076923077
 40
0.3076923076923077
 40
0.3076923076923077
 40
0.3076923076923077
 40
0.3461538461538461
 40
0.3461538461538461
 40
0.3461538461538461
 40
0.3461538461538461
 40
0.3846153846153846
 40
0.3846153846153846
 40
0.3846153846153846
 40
0.3846153846153846
 40
0.4230769230769231
 40
0.4230769230769231
 40
0.4230769230769231
 40
0.4230769230769231
 40
0.4615384615384616
 40
0.4615384615384616
 40
0.4615384615384616
 40
0.4615384615384616
 40
0.5
 40
0.5
 40
0.5
 40
0.5
 40
0.5384615384615384
 40
0.5384615384615384
 40
0.5384615384615384
 40
0.5384615384615384
 40
0.5769230769230769
 40
0.5769230769230769
 40
0.5769230769230769
 40
0.5769230769230769
 40
0.6153846153846154
 40
0.6153846153846154
 40
0.6153846153846154
 40
0.6153846153846154
 40
0.6538461538461539
 40
0.6538461538461539
 40
0.6538461538461539
 40
0.6538461538461539
 40
0.6923076923076923
 40
0.6923076923076923
 40
0.6923076923076923
 40
0.6923076923076923
 40
0.7307692307692307
 40
0.7307692307692307
 40
0.7307692307692307
 40
0.7307692307692307
 40
0.7692307692307693
 40
0.7692307692307693
 40
0.7692307692307693
 40
0.7692307692307693
 40
0.8076923076923077
 40
0.8076923076923077
 40
0.8076923076923077
 40
0.8076923076923077
 40
0.8461538461538461
 40
0.8461538461538461
 40
0.8461538461538461
 40
0.8461538461538461
 40
0.8846153846153846
 40
0.8846153846153846
 40
0.8846153846153846
 40
0.8846153846153846
 40
0.9230769230769231
 40
0.9230769230769231
 40
0.9230769230769231
 40
0.9230769230769231
 40
1.0
 40
1.0
 40
1.0
 40
1.0
 10
-148.4622
 20
39.2957
 30
0.0
 10
-147.4328
 20
38.9844
 30
0.0
 10
-146.4666
 20
38.691
 30
0.0
 10
-146.191
 20
38.6058
 30
0.0
 10
-146.191
 20
38.6058
 30
0.0
 10
-146.1211
 20
38.5842
 30
0.0
 10
-146.0501
 20
38.5642
 30
0.0
 10
-145.9785
 20
38.5456
 30
0.0
 10
-145.9785
 20
38.5456
 30
0.0
 10
-144.8194
 20
40.3263
 30
0.0
 10
-143.5953
 20
41.2588
 30
0.0
 10
-142.3182
 20
41.4717
 30
0.0
 10
-142.3182
 20
41.4717
 30
0.0
 10
-142.3182
 20
41.4717
 30
0.0
 10
-142.1604
 20
41.4979
 30
0.0
 10
-142.1604
 20
41.4979
 30
0.0
 10
-142.1604
 20
41.4979
 30
0.0
 10
-142.1604
 20
41.4979
 30
0.0
 10
-142.0204
 20
41.5596
 30
0.0
 10
-142.0204
 20
41.5596
 30
0.0
 10
-142.0204
 20
41.5596
 30
0.0
 10
-141.1749
 20
41.9315
 30
0.0
 10
-138.2764
 20
41.9719
 30
0.0
 10
-135.0481
 20
41.8503
 30
0.0
 10
-135.0481
 20
41.8503
 30
0.0
 10
-130.6016
 20
41.6828
 30
0.0
 10
-125.684
 20
41.1872
 30
0.0
 10
-124.4231
 20
40.8104
 30
0.0
 10
-124.4231
 20
40.8104
 30
0.0
 10
-122.5373
 20
40.2469
 30
0.0
 10
-122.0672
 20
39.9108
 30
0.0
 10
-121.7586
 20
39.6902
 30
0.0
 10
-121.7586
 20
39.6902
 30
0.0
 10
-120.917
 20
39.0884
 30
0.0
 10
-121.4735
 20
39.2974
 30
0.0
 10
-116.8246
 20
39.2825
 30
0.0
 10
-116.8246
 20
39.2825
 30
0.0
 10
-116.7599
 20
37.9496
 30
0.0
 10
-116.0594
 20
37.4626
 30
0.0
 10
-115.8695
 20
36.7031
 30
0.0
 10
-115.8695
 20
36.7031
 30
0.0
 10
-115.7431
 20
36.1974
 30
0.0
 10
-115.6068
 20
35.6524
 30
0.0
 10
-115.4966
 20
34.7569
 30
0.0
 10
-115.4966
 20
34.7569
 30
0.0
 10
-115.4785
 20
34.6032
 30
0.0
 10
-115.449
 20
34.4416
 30
0.0
 10
-115.4227
 20
34.288
 30
0.0
 10
-115.4227
 20
34.288
 30
0.0
 10
-115.4227
 20
34.288
 30
0.0
 10
-111.4756
 20
34.5916
 30
0.0
 10
-111.4756
 20
34.5916
 30
0.0
 10
-111.4756
 20
34.5916
 30
0.0
 10
-111.4756
 20
34.5916
 30
0.0
 10
-112.1646
 20
35.7909
 30
0.0
 10
-112.1646
 20
35.7909
 30
0.0
 10
-112.1646
 20
35.7909
 30
0.0
 10
-112.1646
 20
35.7909
 30
0.0
 10
-113.1092
 20
35.7182
 30
0.0
 10
-113.1092
 20
35.7182
 30
0.0
 10
-113.1092
 20
35.7182
 30
0.0
 10
-113.2158
 20
36.3812
 30
0.0
 10
-113.3351
 20
36.8583
 30
0.0
 10
-113.4477
 20
37.3085
 30
0.0
 10
-113.4477
 20
37.3085
 30
0.0
 10
-113.6477
 20
38.1081
 30
0.0
 10
-113.8228
 20
38.8083
 30
0.0
 10
-113.8228
 20
40.7291
 30
0.0
 10
-113.8228
 20
40.7291
 30
0.0
 10
-113.8228
 20
40.7291
 30
0.0
 10
-113.8228
 20
41.9791
 30
0.0
 10
-113.8228
 20
41.9791
 30
0.0
 10
-113.8228
 20
41.9791
 30
0.0
 10
-113.8228
 20
41.9791
 30
0.0
 10
-115.0728
 20
41.9791
 30
0.0
 10
-115.0728
 20
41.9791
 30
0.0
 10
-115.0728
 20
41.9791
 30
0.0
 10
-120.132
 20
41.9791
 30
0.0
 10
-120.1782
 20
42.012
 30
0.0
 10
-120.5117
 20
42.2505
 30
0.0
 10
-120.5117
 20
42.2505
 30
0.0
 10
-120.9561
 20
42.5681
 30
0.0
 10
-121.6329
 20
43.052
 30
0.0
 10
-123.9088
 20
43.7321
 30
0.0
 10
-123.9088
 20
43.7321
 30
0.0
 10
-125.3158
 20
44.1525
 30
0.0
 10
-130.5266
 20
45.1582
 30
0.0
 10
-135.1588
 20
45.3327
 30
0.0
 10
-135.1588
 20
45.3327
 30
0.0
 10
-138.5674
 20
45.4611
 30
0.0
 10
-141.7409
 20
45.2489
 30
0.0
 10
-143.0693
 20
44.7664
 30
0.0
 10
-143.0693
 20
44.7664
 30
0.0
 10
-145.4329
 20
44.3014
 30
0.0
 10
-146.9661
 20
42.5064
 30
0.0
 10
-148.5264
 20
40.0982
 30
0.0
 10
-148.5264
 20
40.0982
 30
0.0
 10
-148.5264
 20
40.0982
 30
0.0
 10
-148.4622
 20
39.2957
 30
0.0
 10
-148.4622
 20
39.2957
 30
0.0
  0
SPLINE
  5
43
330
1F
100
AcDbEntity
  8
Layer 1
 62
   250
100
AcDbSpline
210
0.0
220
0.0
230
1.0
 70
    11
 71
     3
 72
    20
 73
    16
 74
     0
 42
0.0000000001
 43
0.0000000001
 40
0.0
 40
0.0
 40
0.0
 40
0.0
 40
0.2
 40
0.2
 40
0.2
 40
0.2
 40
0.4
 40
0.4
 40
0.4
 40
0.4
 40
0.6
 40
0.6
 40
0.6
 40
0.6
 40
1.0
 40
1.0
 40
1.0
 40
1.0
 10
-162.2378
 20
-78.6153
 30
0.0
 10
-162.2378
 20
-78.6153
 30
0.0
 10
-170.2238
 20
-83.4211
 30
0.0
 10
-170.2238
 20
-83.4211
 30
0.0
 10
-170.2238
 20
-83.4211
 30
0.0
 10
-170.2238
 20
-83.4211
 30
0.0
 10
-178.6487
 20
-54.2462
 30
0.0
 10
-178.6487
 20
-54.2462
 30
0.0
 10
-178.6487
 20
-54.2462
 30
0.0
 10
-178.6487
 20
-54.2462
 30
0.0
 10
-169.9403
 20
-50.0781
 30
0.0
 10
-169.9403
 20
-50.0781
 30
0.0
 10
-169.9403
 20
-50.0781
 30
0.0
 10
-169.9403
 20
-50.0781
 30
0.0
 10
-162.2378
 20
-78.6153
 30
0.0
 10
-162.2378
 20
-78.6153
 30
0.0
  0
SPLINE
  5
44
330
1F
100
AcDbEntity
  8
Layer 1
 62
   250
100
AcDbSpline
210
0.0
220
0.0
230
1.0
 70
    11
 71
     3
 72
   140
 73
   136
 74
     0
 42
0.0000000001
 43
0.0000000001
 40
0.0
 40
0.0
 40
0.0
 40
0.0
 40
0.0285714285714286
 40
0.0285714285714286
 40
0.0285714285714286
 40
0.0285714285714286
 40
0.0571428571428571
 40
0.0571428571428571
 40
0.0571428571428571
 40
0.0571428571428571
 40
0.0857142857142857
 40
0.0857142857142857
 40
0.0857142857142857
 40
0.0857142857142857
 40
0.1142857142857143
 40
0.1142857142857143
 40
0.1142857142857143
 40
0.1142857142857143
 40
0.1428571428571428
 40
0.1428571428571428
 40
0.1428571428571428
 40
0.1428571428571428
 40
0.1714285714285714
 40
0.1714285714285714
 40
0.1714285714285714
 40
0.1714285714285714
 40
0.2
 40
0.2
 40
0.2
 40
0.2
 40
0.2285714285714286
 40
0.2285714285714286
 40
0.2285714285714286
 40
0.2285714285714286
 40
0.2571428571428571
 40
0.2571428571428571
 40
0.2571428571428571
 40
0.2571428571428571
 40
0.2857142857142857
 40
0.2857142857142857
 40
0.2857142857142857
 40
0.2857142857142857
 40
0.3142857142857143
 40
0.3142857142857143
 40
0.3142857142857143
 40
0.3142857142857143
 40
0.3428571428571429
 40
0.3428571428571429
 40
0.3428571428571429
 40
0.3428571428571429
 40
0.3714285714285714
 40
0.3714285714285714
 40
0.3714285714285714
 40
0.3714285714285714
 40
0.4
 40
0.4
 40
0.4
 40
0.4
 40
0.4285714285714285
 40
0.4285714285714285
 40
0.4285714285714285
 40
0.4285714285714285
 40
0.4571428571428571
 40
0.4571428571428571
 40
0.4571428571428571
 40
0.4571428571428571
 40
0.4857142857142857
 40
0.4857142857142857
 40
0.4857142857142857
 40
0.4857142857142857
 40
0.5142857142857142
 40
0.5142857142857142
 40
0.5142857142857142
 40
0.5142857142857142
 40
0.5428571428571428
 40
0.5428571428571428
 40
0.5428571428571428
 40
0.5428571428571428
 40
0.5714285714285714
 40
0.5714285714285714
 40
0.5714285714285714
 40
0.5714285714285714
 40
0.6
 40
0.6
 40
0.6
 40
0.6
 40
0.6285714285714286
 40
0.6285714285714286
 40
0.6285714285714286
 40
0.6285714285714286
 40
0.6571428571428571
 40
0.6571428571428571
 40
0.6571428571428571
 40
0.6571428571428571
 40
0.6857142857142857
 40
0.6857142857142857
 40
0.6857142857142857
 40
0.6857142857142857
 40
0.7142857142857143
 40
0.7142857142857143
 40
0.7142857142857143
 40
0.7142857142857143
 40
0.7428571428571429
 40
0.7428571428571429
 40
0.7428571428571429
 40
0.7428571428571429
 40
0.7714285714285715
 40
0.7714285714285715
 40
0.7714285714285715
 40
0.7714285714285715
 40
0.8
 40
0.8
 40
0.8
 40
0.8
 40
0.8285714285714286
 40
0.8285714285714286
 40
0.8285714285714286
 40
0.8285714285714286
 40
0.8571428571428571
 40
0.8571428571428571
 40
0.8571428571428571
 40
0.8571428571428571
 40
0.8857142857142857
 40
0.8857142857142857
 40
0.8857142857142857
 40
0.8857142857142857
 40
0.9142857142857143
 40
0.9142857142857143
 40
0.9142857142857143
 40
0.9142857142857143
 40
0.9428571428571428
 40
0.9428571428571428
 40
0.9428571428571428
 40
0.9428571428571428
 40
1.0
 40
1.0
 40
1.0
 40
1.0
 10
-167.1766
 20
-84.1754
 30
0.0
 10
-167.1766
 20
-84.1754
 30
0.0
 10
-161.6517
 20
-80.7868
 30
0.0
 10
-161.6517
 20
-80.7868
 30
0.0
 10
-161.6517
 20
-80.7868
 30
0.0
 10
-161.6517
 20
-80.7868
 30
0.0
 10
-161.5819
 20
-81.0454
 30
0.0
 10
-161.5819
 20
-81.0454
 30
0.0
 10
-161.5819
 20
-81.0454
 30
0.0
 10
-156.1098
 20
-78.4495
 30
0.0
 10
-147.8965
 20
-75.1352
 30
0.0
 10
-146.2252
 20
-75.1874
 30
0.0
 10
-146.2252
 20
-75.1874
 30
0.0
 10
-145.6529
 20
-74.4461
 30
0.0
 10
-145.9672
 20
-74.9221
 30
0.0
 10
-145.4087
 20
-73.6831
 30
0.0
 10
-145.4087
 20
-73.6831
 30
0.0
 10
-140.6212
 20
-60.7673
 30
0.0
 10
-144.4636
 20
-49.0281
 30
0.0
 10
-155.1983
 20
-38.229
 30
0.0
 10
-155.1983
 20
-38.229
 30
0.0
 10
-155.1983
 20
-38.229
 30
0.0
 10
-171.1475
 20
-45.6055
 30
0.0
 10
-171.1475
 20
-45.6055
 30
0.0
 10
-171.1475
 20
-45.6055
 30
0.0
 10
-171.1475
 20
-45.6055
 30
0.0
 10
-171.1428
 20
-45.6229
 30
0.0
 10
-171.1428
 20
-45.6229
 30
0.0
 10
-171.1428
 20
-45.6229
 30
0.0
 10
-171.1428
 20
-45.6229
 30
0.0
 10
-179.959
 20
-49.7085
 30
0.0
 10
-179.959
 20
-49.7085
 30
0.0
 10
-179.959
 20
-49.7085
 30
0.0
 10
-179.959
 20
-49.7085
 30
0.0
 10
-179.9661
 20
-49.6841
 30
0.0
 10
-179.9661
 20
-49.6841
 30
0.0
 10
-179.9661
 20
-49.6841
 30
0.0
 10
-179.9661
 20
-49.6841
 30
0.0
 10
-197.5316
 20
-57.8081
 30
0.0
 10
-197.5316
 20
-57.8081
 30
0.0
 10
-197.5316
 20
-57.8081
 30
0.0
 10
-197.5316
 20
-57.8081
 30
0.0
 10
-199.6483
 20
-62.8352
 30
0.0
 10
-199.6483
 20
-62.8352
 30
0.0
 10
-199.6483
 20
-62.8352
 30
0.0
 10
-199.6483
 20
-62.8352
 30
0.0
 10
-202.8233
 20
-60.9831
 30
0.0
 10
-202.8233
 20
-60.9831
 30
0.0
 10
-202.8233
 20
-60.9831
 30
0.0
 10
-202.8233
 20
-60.9831
 30
0.0
 10
-200.7066
 20
-53.8394
 30
0.0
 10
-200.7066
 20
-53.8394
 30
0.0
 10
-200.7066
 20
-53.8394
 30
0.0
 10
-200.7066
 20
-53.8394
 30
0.0
 10
-181.2463
 20
-45.2508
 30
0.0
 10
-181.2463
 20
-45.2508
 30
0.0
 10
-181.2463
 20
-45.2508
 30
0.0
 10
-181.2463
 20
-45.2508
 30
0.0
 10
-184.038
 20
-35.5832
 30
0.0
 10
-184.038
 20
-35.5832
 30
0.0
 10
-184.038
 20
-35.5832
 30
0.0
 10
-184.038
 20
-35.5832
 30
0.0
 10
-184.1249
 20
-35.5944
 30
0.0
 10
-184.1249
 20
-35.5944
 30
0.0
 10
-184.1249
 20
-35.5944
 30
0.0
 10
-180.5066
 20
-33.6441
 30
0.0
 10
-180.5578
 20
-31.9781
 30
0.0
 10
-178.1945
 20
-28.7946
 30
0.0
 10
-178.1945
 20
-28.7946
 30
0.0
 10
-177.2802
 20
-27.563
 30
0.0
 10
-177.4234
 20
-23.9667
 30
0.0
 10
-177.4234
 20
-22.3539
 30
0.0
 10
-177.4234
 20
-22.3539
 30
0.0
 10
-177.4234
 20
-22.3539
 30
0.0
 10
-172.308
 20
-41.3059
 30
0.0
 10
-172.308
 20
-41.3059
 30
0.0
 10
-172.308
 20
-41.3059
 30
0.0
 10
-172.308
 20
-41.3059
 30
0.0
 10
-168.9377
 20
-39.8203
 30
0.0
 10
-168.9377
 20
-39.8203
 30
0.0
 10
-168.9377
 20
-39.8203
 30
0.0
 10
-168.9377
 20
-39.8203
 30
0.0
 10
-168.9874
 20
-31.8753
 30
0.0
 10
-168.9874
 20
-31.8753
 30
0.0
 10
-168.9874
 20
-31.8753
 30
0.0
 10
-168.9874
 20
-31.8753
 30
0.0
 10
-166.9535
 20
-31.6107
 30
0.0
 10
-166.9535
 20
-31.6107
 30
0.0
 10
-166.9535
 20
-31.6107
 30
0.0
 10
-166.9165
 20
-33.0476
 30
0.0
 10
-166.6934
 20
-34.5589
 30
0.0
 10
-166.6934
 20
-35.9983
 30
0.0
 10
-166.6934
 20
-35.9983
 30
0.0
 10
-166.6934
 20
-35.9983
 30
0.0
 10
-166.6934
 20
-38.8279
 30
0.0
 10
-166.6934
 20
-38.8279
 30
0.0
 10
-166.6934
 20
-38.8279
 30
0.0
 10
-166.6934
 20
-38.8279
 30
0.0
 10
-166.3556
 20
-38.6789
 30
0.0
 10
-166.3556
 20
-38.6789
 30
0.0
 10
-166.3556
 20
-38.6789
 30
0.0
 10
-166.3556
 20
-38.6789
 30
0.0
 10
-166.3556
 20
-38.6789
 30
0.0
 10
-166.3556
 20
-38.6789
 30
0.0
 10
-166.3556
 20
-38.6789
 30
0.0
 10
-166.3556
 20
-38.6789
 30
0.0
 10
-153.3462
 20
-32.9374
 30
0.0
 10
-153.3462
 20
-32.9374
 30
0.0
 10
-153.3462
 20
-32.9374
 30
0.0
 10
-143.6229
 20
-44.9445
 30
0.0
 10
-136.107
 20
-56.756
 30
0.0
 10
-140.7151
 20
-72.4084
 30
0.0
 10
-140.7151
 20
-72.4084
 30
0.0
 10
-140.7151
 20
-72.4084
 30
0.0
 10
-140.7551
 20
-72.7128
 30
0.0
 10
-140.7551
 20
-72.7128
 30
0.0
 10
-140.7551
 20
-72.7128
 30
0.0
 10
-141.2898
 20
-74.3252
 30
0.0
 10
-141.6707
 20
-75.5082
 30
0.0
 10
-142.4984
 20
-77.1228
 30
0.0
 10
-142.4984
 20
-77.1228
 30
0.0
 10
-142.4984
 20
-77.1228
 30
0.0
 10
-174.2484
 20
-90.6164
 30
0.0
 10
-174.2484
 20
-90.6164
 30
0.0
 10
-174.2484
 20
-90.6164
 30
0.0
 10
-174.2484
 20
-90.6164
 30
0.0
 10
-168.4275
 20
-85.0602
 30
0.0
 10
-168.4275
 20
-85.0602
 30
0.0
 10
-168.4275
 20
-85.0602
 30
0.0
 10
-168.1348
 20
-85.01
 30
0.0
 10
-167.4876
 20
-84.5056
 30
0.0
 10
-166.946
 20
-84.0962
 30
0.0
 10
-166.946
 20
-84.0962
 30
0.0
 10
-166.946
 20
-84.0962
 30
0.0
 10
-167.1766
 20
-84.1754
 30
0.0
 10
-167.1766
 20
-84.1754
 30
0.0
  0
SPLINE
  5
45
330
1F
100
AcDbEntity
  8
Layer 1
 62
   250
100
AcDbSpline
210
0.0
220
0.0
230
1.0
 70
    11
 71
     3
 72
   116
 73
   112
 74
     0
 42
0.0000000001
 43
0.0000000001
 40
0.0
 40
0.0
 40
0.0
 40
0.0
 40
0.0344827586206897
 40
0.0344827586206897
 40
0.0344827586206897
 40
0.0344827586206897
 40
0.0689655172413793
 40
0.0689655172413793
 40
0.0689655172413793
 40
0.0689655172413793
 40
0.103448275862069
 40
0.103448275862069
 40
0.103448275862069
 40
0.103448275862069
 40
0.1379310344827586
 40
0.1379310344827586
 40
0.1379310344827586
 40
0.1379310344827586
 40
0.1724137931034483
 40
0.1724137931034483
 40
0.1724137931034483
 40
0.1724137931034483
 40
0.2068965517241379
 40
0.2068965517241379
 40
0.2068965517241379
 40
0.2068965517241379
 40
0.2413793103448276
 40
0.2413793103448276
 40
0.2413793103448276
 40
0.2413793103448276
 40
0.2758620689655172
 40
0.2758620689655172
 40
0.2758620689655172
 40
0.2758620689655172
 40
0.3103448275862069
 40
0.3103448275862069
 40
0.3103448275862069
 40
0.3103448275862069
 40
0.3448275862068966
 40
0.3448275862068966
 40
0.3448275862068966
 40
0.3448275862068966
 40
0.3793103448275862
 40
0.3793103448275862
 40
0.3793103448275862
 40
0.3793103448275862
 40
0.4137931034482759
 40
0.4137931034482759
 40
0.4137931034482759
 40
0.4137931034482759
 40
0.4482758620689655
 40
0.4482758620689655
 40
0.4482758620689655
 40
0.4482758620689655
 40
0.4827586206896552
 40
0.4827586206896552
 40
0.4827586206896552
 40
0.4827586206896552
 40
0.5172413793103449
 40
0.5172413793103449
 40
0.5172413793103449
 40
0.5172413793103449
 40
0.5517241379310345
 40
0.5517241379310345
 40
0.5517241379310345
 40
0.5517241379310345
 40
0.5862068965517241
 40
0.5862068965517241
 40
0.5862068965517241
 40
0.5862068965517241
 40
0.6206896551724138
 40
0.6206896551724138
 40
0.6206896551724138
 40
0.6206896551724138
 40
0.6551724137931034
 40
0.6551724137931034
 40
0.6551724137931034
 40
0.6551724137931034
 40
0.6896551724137931
 40
0.6896551724137931
 40
0.6896551724137931
 40
0.6896551724137931
 40
0.7241379310344828
 40
0.7241379310344828
 40
0.7241379310344828
 40
0.7241379310344828
 40
0.7586206896551724
 40
0.7586206896551724
 40
0.7586206896551724
 40
0.7586206896551724
 40
0.7931034482758621
 40
0.7931034482758621
 40
0.7931034482758621
 40
0.7931034482758621
 40
0.8275862068965517
 40
0.8275862068965517
 40
0.8275862068965517
 40
0.8275862068965517
 40
0.8620689655172413
 40
0.8620689655172413
 40
0.8620689655172413
 40
0.8620689655172413
 40
0.896551724137931
 40
0.896551724137931
 40
0.896551724137931
 40
0.896551724137931
 40
0.9310344827586207
 40
0.9310344827586207
 40
0.9310344827586207
 40
0.9310344827586207
 40
1.0
 40
1.0
 40
1.0
 40
1.0
 10
-152.02
 20
41.9072
 30
0.0
 10
-151.6419
 20
42.3062
 30
0.0
 10
-150.1069
 20
43.3868
 30
0.0
 10
-149.7352
 20
43.7642
 30
0.0
 10
-149.7352
 20
43.7642
 30
0.0
 10
-150.0305
 20
48.3689
 30
0.0
 10
-149.874
 20
50.7744
 30
0.0
 10
-149.417
 20
53.0883
 30
0.0
 10
-149.417
 20
53.0883
 30
0.0
 10
-148.8369
 20
56.0246
 30
0.0
 10
-147.935
 20
57.453
 30
0.0
 10
-149.2648
 20
61.2724
 30
0.0
 10
-149.2648
 20
61.2724
 30
0.0
 10
-149.4232
 20
61.7274
 30
0.0
 10
-149.6539
 20
62.0161
 30
0.0
 10
-149.9418
 20
62.3764
 30
0.0
 10
-149.9418
 20
62.3764
 30
0.0
 10
-150.4399
 20
62.9996
 30
0.0
 10
-151.2132
 20
63.9672
 30
0.0
 10
-151.6281
 20
67.3409
 30
0.0
 10
-151.6281
 20
67.3409
 30
0.0
 10
-151.9413
 20
69.887
 30
0.0
 10
-152.4151
 20
72.9968
 30
0.0
 10
-153.4057
 20
75.7103
 30
0.0
 10
-153.4057
 20
75.7103
 30
0.0
 10
-154.2132
 20
77.9221
 30
0.0
 10
-154.9173
 20
79.8509
 30
0.0
 10
-154.9078
 20
80.6687
 30
0.0
 10
-154.9078
 20
80.6687
 30
0.0
 10
-154.9078
 20
80.6687
 30
0.0
 10
-154.9078
 20
80.6735
 30
0.0
 10
-154.9078
 20
80.6735
 30
0.0
 10
-154.9078
 20
80.6735
 30
0.0
 10
-154.8727
 20
83.6704
 30
0.0
 10
-154.6738
 20
86.6534
 30
0.0
 10
-153.9678
 20
89.4349
 30
0.0
 10
-153.9678
 20
89.4349
 30
0.0
 10
-153.2921
 20
92.0969
 30
0.0
 10
-151.9447
 20
94.7717
 30
0.0
 10
-150.0061
 20
96.8902
 30
0.0
 10
-150.0061
 20
96.8902
 30
0.0
 10
-149.5852
 20
97.2225
 30
0.0
 10
-149.3104
 20
97.6473
 30
0.0
 10
-149.1492
 20
98.1316
 30
0.0
 10
-149.1492
 20
98.1316
 30
0.0
 10
-148.7883
 20
99.2171
 30
0.0
 10
-149.0837
 20
100.5427
 30
0.0
 10
-149.4951
 20
101.6297
 30
0.0
 10
-149.4951
 20
101.6297
 30
0.0
 10
-149.796
 20
102.4248
 30
0.0
 10
-150.1775
 20
103.1327
 30
0.0
 10
-150.3654
 20
103.4513
 30
0.0
 10
-150.3654
 20
103.4513
 30
0.0
 10
-150.4824
 20
103.8043
 30
0.0
 10
-150.5696
 20
103.9697
 30
0.0
 10
-150.6331
 20
104.0903
 30
0.0
 10
-150.6331
 20
104.0903
 30
0.0
 10
-150.6569
 20
104.1354
 30
0.0
 10
-150.6035
 20
104.0341
 30
0.0
 10
-150.6035
 20
104.5621
 30
0.0
 10
-150.6035
 20
104.5621
 30
0.0
 10
-150.6035
 20
106.4133
 30
0.0
 10
-150.3369
 20
107.0579
 30
0.0
 10
-150.0962
 20
107.6405
 30
0.0
 10
-150.0962
 20
107.6405
 30
0.0
 10
-149.9794
 20
107.9228
 30
0.0
 10
-149.8668
 20
108.1952
 30
0.0
 10
-149.7743
 20
108.5185
 30
0.0
 10
-149.7743
 20
108.5185
 30
0.0
 10
-150.1385
 20
108.6326
 30
0.0
 10
-152.5991
 20
109.0925
 30
0.0
 10
-153.01
 20
109.2495
 30
0.0
 10
-153.01
 20
109.2495
 30
0.0
 10
-153.3073
 20
108.138
 30
0.0
 10
-153.904
 20
107.7548
 30
0.0
 10
-153.904
 20
104.8928
 30
0.0
 10
-153.904
 20
104.8928
 30
0.0
 10
-153.904
 20
103.5952
 30
0.0
 10
-153.8488
 20
104.2182
 30
0.0
 10
-153.5525
 20
103.2485
 30
0.0
 10
-153.5525
 20
103.2485
 30
0.0
 10
-153.5086
 20
103.2339
 30
0.0
 10
-151.207
 20
99.3188
 30
0.0
 10
-152.9004
 20
98.1459
 30
0.0
 10
-152.9004
 20
98.1459
 30
0.0
 10
-154.0108
 20
96.9489
 30
0.0
 10
-155.2152
 20
95.6379
 30
0.0
 10
-155.3479
 20
94.0448
 30
0.0
 10
-155.3479
 20
94.0448
 30
0.0
 10
-155.3588
 20
93.914
 30
0.0
 10
-155.3686
 20
93.9286
 30
0.0
 10
-155.4915
 20
93.7802
 30
0.0
 10
-155.4915
 20
93.7802
 30
0.0
 10
-156.3735
 20
93.35
 30
0.0
 10
-156.0818
 20
93.6278
 30
0.0
 10
-156.4969
 20
93.1074
 30
0.0
 10
-156.4969
 20
93.1074
 30
0.0
 10
-156.4464
 20
92.9463
 30
0.0
 10
-157.9693
 20
84.2596
 30
0.0
 10
-158.005
 20
81.2125
 30
0.0
 10
-158.005
 20
81.2125
 30
0.0
 10
-158.0313
 20
78.9674
 30
0.0
 10
-154.6169
 20
72.2552
 30
0.0
 10
-154.0589
 20
67.7187
 30
0.0
 10
-154.0589
 20
67.7187
 30
0.0
 10
-153.4371
 20
62.6639
 30
0.0
 10
-151.9752
 20
62.3764
 30
0.0
 10
-151.6322
 20
61.3914
 30
0.0
 10
-151.6322
 20
61.3914
 30
0.0
 10
-149.2789
 20
54.6329
 30
0.0
 10
-153.0135
 20
53.1566
 30
0.0
 10
-152.02
 20
41.9072
 30
0.0
  0
SPLINE
  5
46
330
1F
100
AcDbEntity
  8
Layer 1
 62
   250
100
AcDbSpline
210
0.0
220
0.0
230
1.0
 70
    11
 71
     3
 72
    88
 73
    84
 74
     0
 42
0.0000000001
 43
0.0000000001
 40
0.0
 40
0.0
 40
0.0
 40
0.0
 40
0.0454545454545455
 40
0.0454545454545455
 40
0.0454545454545455
 40
0.0454545454545455
 40
0.0909090909090909
 40
0.0909090909090909
 40
0.0909090909090909
 40
0.0909090909090909
 40
0.1363636363636364
 40
0.1363636363636364
 40
0.1363636363636364
 40
0.1363636363636364
 40
0.1818181818181818
 40
0.1818181818181818
 40
0.1818181818181818
 40
0.1818181818181818
 40
0.2272727272727273
 40
0.2272727272727273
 40
0.2272727272727273
 40
0.2272727272727273
 40
0.2727272727272727
 40
0.2727272727272727
 40
0.2727272727272727
 40
0.2727272727272727
 40
0.3181818181818182
 40
0.3181818181818182
 40
0.3181818181818182
 40
0.3181818181818182
 40
0.3636363636363636
 40
0.3636363636363636
 40
0.3636363636363636
 40
0.3636363636363636
 40
0.4090909090909091
 40
0.4090909090909091
 40
0.4090909090909091
 40
0.4090909090909091
 40
0.4545454545454545
 40
0.4545454545454545
 40
0.4545454545454545
 40
0.4545454545454545
 40
0.5
 40
0.5
 40
0.5
 40
0.5
 40
0.5454545454545454
 40
0.5454545454545454
 40
0.5454545454545454
 40
0.5454545454545454
 40
0.5909090909090909
 40
0.5909090909090909
 40
0.5909090909090909
 40
0.5909090909090909
 40
0.6363636363636364
 40
0.6363636363636364
 40
0.6363636363636364
 40
0.6363636363636364
 40
0.6818181818181818
 40
0.6818181818181818
 40
0.6818181818181818
 40
0.6818181818181818
 40
0.7272727272727273
 40
0.7272727272727273
 40
0.7272727272727273
 40
0.7272727272727273
 40
0.7727272727272727
 40
0.7727272727272727
 40
0.7727272727272727
 40
0.7727272727272727
 40
0.8181818181818182
 40
0.8181818181818182
 40
0.8181818181818182
 40
0.8181818181818182
 40
0.8636363636363636
 40
0.8636363636363636
 40
0.8636363636363636
 40
0.8636363636363636
 40
0.9090909090909091
 40
0.9090909090909091
 40
0.9090909090909091
 40
0.9090909090909091
 40
1.0
 40
1.0
 40
1.0
 40
1.0
 10
-211.4232
 20
-160.2692
 30
0.0
 10
-211.4232
 20
-160.2692
 30
0.0
 10
-202.7802
 20
-144.218
 30
0.0
 10
-202.7802
 20
-144.218
 30
0.0
 10
-202.7802
 20
-144.218
 30
0.0
 10
-202.7802
 20
-144.218
 30
0.0
 10
-205.2028
 20
-136.3877
 30
0.0
 10
-205.2028
 20
-136.3877
 30
0.0
 10
-205.2028
 20
-136.3877
 30
0.0
 10
-205.2028
 20
-136.3877
 30
0.0
 10
-217.109
 20
-161.5232
 30
0.0
 10
-217.109
 20
-161.5232
 30
0.0
 10
-217.109
 20
-161.5232
 30
0.0
 10
-217.109
 20
-161.5232
 30
0.0
 10
-219.7548
 20
-155.4377
 30
0.0
 10
-219.7548
 20
-155.4377
 30
0.0
 10
-219.7548
 20
-155.4377
 30
0.0
 10
-219.7548
 20
-155.4377
 30
0.0
 10
-208.3778
 20
-131.6252
 30
0.0
 10
-208.3778
 20
-131.6252
 30
0.0
 10
-208.3778
 20
-131.6252
 30
0.0
 10
-208.3778
 20
-131.6252
 30
0.0
 10
-209.1074
 20
-130.8805
 30
0.0
 10
-209.1074
 20
-130.8805
 30
0.0
 10
-209.1074
 20
-130.8805
 30
0.0
 10
-209.1074
 20
-130.8805
 30
0.0
 10
-218.0377
 20
-151.8028
 30
0.0
 10
-218.0377
 20
-151.8028
 30
0.0
 10
-218.0377
 20
-151.8028
 30
0.0
 10
-224.0333
 20
-138.3612
 30
0.0
 10
-228.5346
 20
-124.3218
 30
0.0
 10
-231.0023
 20
-109.4694
 30
0.0
 10
-231.0023
 20
-109.4694
 30
0.0
 10
-231.0023
 20
-109.4694
 30
0.0
 10
-233.7778
 20
-105.6961
 30
0.0
 10
-233.7778
 20
-105.6961
 30
0.0
 10
-233.7778
 20
-105.6961
 30
0.0
 10
-233.7778
 20
-105.6961
 30
0.0
 10
-232.4548
 20
-100.4044
 30
0.0
 10
-232.4548
 20
-100.4044
 30
0.0
 10
-232.4548
 20
-100.4044
 30
0.0
 10
-232.4548
 20
-100.4044
 30
0.0
 10
-206.2611
 20
-123.6877
 30
0.0
 10
-206.2611
 20
-123.6877
 30
0.0
 10
-206.2611
 20
-123.6877
 30
0.0
 10
-206.2611
 20
-123.6877
 30
0.0
 10
-198.5882
 20
-114.6919
 30
0.0
 10
-198.5882
 20
-114.6919
 30
0.0
 10
-198.5882
 20
-114.6919
 30
0.0
 10
-198.5882
 20
-114.6919
 30
0.0
 10
-195.4132
 20
-115.4857
 30
0.0
 10
-195.4132
 20
-115.4857
 30
0.0
 10
-195.4132
 20
-115.4857
 30
0.0
 10
-195.4132
 20
-115.4857
 30
0.0
 10
-201.7632
 20
-128.7148
 30
0.0
 10
-201.7632
 20
-128.7148
 30
0.0
 10
-201.7632
 20
-128.7148
 30
0.0
 10
-201.7632
 20
-128.7148
 30
0.0
 10
-181.6548
 20
-143.7961
 30
0.0
 10
-181.6548
 20
-143.7961
 30
0.0
 10
-181.6548
 20
-143.7961
 30
0.0
 10
-181.6548
 20
-143.7961
 30
0.0
 10
-179.5382
 20
-146.7065
 30
0.0
 10
-179.5382
 20
-146.7065
 30
0.0
 10
-179.5382
 20
-146.7065
 30
0.0
 10
-179.5382
 20
-146.7065
 30
0.0
 10
-180.0673
 20
-149.8815
 30
0.0
 10
-180.0673
 20
-149.8815
 30
0.0
 10
-180.0673
 20
-149.8815
 30
0.0
 10
-180.0673
 20
-149.8815
 30
0.0
 10
-201.234
 20
-135.3294
 30
0.0
 10
-201.234
 20
-135.3294
 30
0.0
 10
-201.234
 20
-135.3294
 30
0.0
 10
-201.234
 20
-135.3294
 30
0.0
 10
-188.534
 20
-183.219
 30
0.0
 10
-188.534
 20
-183.219
 30
0.0
 10
-188.534
 20
-183.219
 30
0.0
 10
-188.534
 20
-183.219
 30
0.0
 10
-190.3861
 20
-184.2773
 30
0.0
 10
-190.3861
 20
-184.2773
 30
0.0
 10
-190.3861
 20
-184.2773
 30
0.0
 10
-190.6833
 20
-183.5416
 30
0.0
 10
-206.1972
 20
-170.6183
 30
0.0
 10
-211.4232
 20
-160.2692
 30
0.0
  0
SPLINE
  5
47
330
1F
100
AcDbEntity
  8
Layer 1
 62
   250
100
AcDbSpline
210
0.0
220
0.0
230
1.0
 70
    11
 71
     3
 72
    16
 73
    12
 74
     0
 42
0.0000000001
 43
0.0000000001
 40
0.0
 40
0.0
 40
0.0
 40
0.0
 40
0.25
 40
0.25
 40
0.25
 40
0.25
 40
0.5
 40
0.5
 40
0.5
 40
0.5
 40
1.0
 40
1.0
 40
1.0
 40
1.0
 10
-180.9961
 20
-149.9506
 30
0.0
 10
-180.9961
 20
-149.9506
 30
0.0
 10
-188.1398
 20
-152.0672
 30
0.0
 10
-188.1398
 20
-152.0672
 30
0.0
 10
-188.1398
 20
-152.0672
 30
0.0
 10
-188.1398
 20
-152.0672
 30
0.0
 10
-183.1127
 20
-177.4672
 30
0.0
 10
-183.1127
 20
-177.4672
 30
0.0
 10
-183.1127
 20
-177.4672
 30
0.0
 10
-181.4314
 20
-169.271
 30
0.0
 10
-180.5607
 20
-160.2636
 30
0.0
 10
-180.9961
 20
-149.9506
 30
0.0
  0
SPLINE
  5
48
330
1F
100
AcDbEntity
  8
Layer 1
 62
   250
100
AcDbSpline
210
0.0
220
0.0
230
1.0
 70
    11
 71
     3
 72
    20
 73
    16
 74
     0
 42
0.0000000001
 43
0.0000000001
 40
0.0
 40
0.0
 40
0.0
 40
0.0
 40
0.2
 40
0.2
 40
0.2
 40
0.2
 40
0.4
 40
0.4
 40
0.4
 40
0.4
 40
0.6
 40
0.6
 40
0.6
 40
0.6
 40
1.0
 40
1.0
 40
1.0
 40
1.0
 10
-180.7315
 20
-185.9338
 30
0.0
 10
-176.8936
 20
-179.1117
 30
0.0
 10
-173.3461
 20
-170.4331
 30
0.0
 10
-175.1752
 20
-153.1255
 30
0.0
 10
-175.1752
 20
-153.1255
 30
0.0
 10
-175.1752
 20
-153.1255
 30
0.0
 10
-168.5606
 20
-155.5068
 30
0.0
 10
-168.5606
 20
-155.5068
 30
0.0
 10
-168.5606
 20
-155.5068
 30
0.0
 10
-168.5118
 20
-166.0018
 30
0.0
 10
-169.7559
 20
-176.4969
 30
0.0
 10
-172.5294
 20
-186.9922
 30
0.0
 10
-172.5294
 20
-186.9922
 30
0.0
 10
-172.5294
 20
-186.9922
 30
0.0
 10
-180.7315
 20
-185.9338
 30
0.0
 10
-180.7315
 20
-185.9338
 30
0.0
  0
SPLINE
  5
49
330
1F
100
AcDbEntity
  8
Layer 1
 62
   250
100
AcDbSpline
210
0.0
220
0.0
230
1.0
 70
    11
 71
     3
 72
    24
 73
    20
 74
     0
 42
0.0000000001
 43
0.0000000001
 40
0.0
 40
0.0
 40
0.0
 40
0.0
 40
0.1666666666666667
 40
0.1666666666666667
 40
0.1666666666666667
 40
0.1666666666666667
 40
0.3333333333333333
 40
0.3333333333333333
 40
0.3333333333333333
 40
0.3333333333333333
 40
0.5
 40
0.5
 40
0.5
 40
0.5
 40
0.6666666666666666
 40
0.6666666666666666
 40
0.6666666666666666
 40
0.6666666666666666
 40
1.0
 40
1.0
 40
1.0
 40
1.0
 10
-165.915
 20
-95.9755
 30
0.0
 10
-165.915
 20
-95.9755
 30
0.0
 10
-171.4712
 20
-97.2985
 30
0.0
 10
-171.4712
 20
-97.2985
 30
0.0
 10
-171.4712
 20
-97.2985
 30
0.0
 10
-164.97
 20
-108.852
 30
0.0
 10
-160.5979
 20
-120.4053
 30
0.0
 10
-159.0358
 20
-131.9589
 30
0.0
 10
-159.0358
 20
-131.9589
 30
0.0
 10
-159.0358
 20
-131.9589
 30
0.0
 10
-145.0128
 20
-119.788
 30
0.0
 10
-145.0128
 20
-119.788
 30
0.0
 10
-145.0128
 20
-119.788
 30
0.0
 10
-145.0128
 20
-119.788
 30
0.0
 10
-146.865
 20
-104.1776
 30
0.0
 10
-146.865
 20
-104.1776
 30
0.0
 10
-146.865
 20
-104.1776
 30
0.0
 10
-146.865
 20
-104.1776
 30
0.0
 10
-165.915
 20
-95.9755
 30
0.0
 10
-165.915
 20
-95.9755
 30
0.0
  0
SPLINE
  5
4A
330
1F
100
AcDbEntity
  8
Layer 1
 62
   250
100
AcDbSpline
210
0.0
220
0.0
230
1.0
 70
    11
 71
     3
 72
    20
 73
    16
 74
     0
 42
0.0000000001
 43
0.0000000001
 40
0.0
 40
0.0
 40
0.0
 40
0.0
 40
0.2
 40
0.2
 40
0.2
 40
0.2
 40
0.4
 40
0.4
 40
0.4
 40
0.4
 40
0.6
 40
0.6
 40
0.6
 40
0.6
 40
1.0
 40
1.0
 40
1.0
 40
1.0
 10
-95.8005
 20
-80.3648
 30
0.0
 10
-95.8005
 20
-80.3648
 30
0.0
 10
-79.6609
 20
-72.9565
 30
0.0
 10
-79.6609
 20
-72.9565
 30
0.0
 10
-79.6609
 20
-72.9565
 30
0.0
 10
-74.5328
 20
-79.1013
 30
0.0
 10
-72.177
 20
-86.038
 30
0.0
 10
-71.988
 20
-93.594
 30
0.0
 10
-71.988
 20
-93.594
 30
0.0
 10
-71.988
 20
-93.594
 30
0.0
 10
-96.3296
 20
-103.3836
 30
0.0
 10
-96.3296
 20
-103.3836
 30
0.0
 10
-96.3296
 20
-103.3836
 30
0.0
 10
-96.3296
 20
-103.3836
 30
0.0
 10
-95.8005
 20
-80.3648
 30
0.0
 10
-95.8005
 20
-80.3648
 30
0.0
  0
SPLINE
  5
4B
330
1F
100
AcDbEntity
  8
Layer 1
 62
   250
100
AcDbSpline
210
0.0
220
0.0
230
1.0
 70
    11
 71
     3
 72
    16
 73
    12
 74
     0
 42
0.0000000001
 43
0.0000000001
 40
0.0
 40
0.0
 40
0.0
 40
0.0
 40
0.25
 40
0.25
 40
0.25
 40
0.25
 40
0.5
 40
0.5
 40
0.5
 40
0.5
 40
1.0
 40
1.0
 40
1.0
 40
1.0
 10
-73.5755
 20
-146.2461
 30
0.0
 10
-73.5755
 20
-146.2461
 30
0.0
 10
-82.5713
 20
-135.6627
 30
0.0
 10
-82.5713
 20
-135.6627
 30
0.0
 10
-82.5713
 20
-135.6627
 30
0.0
 10
-82.5713
 20
-135.6627
 30
0.0
 10
-69.3421
 20
-133.5461
 30
0.0
 10
-69.3421
 20
-133.5461
 30
0.0
 10
-69.3421
 20
-133.5461
 30
0.0
 10
-69.4127
 20
-137.7794
 30
0.0
 10
-70.6827
 20
-142.0127
 30
0.0
 10
-73.5755
 20
-146.2461
 30
0.0
  0
SPLINE
  5
4C
330
1F
100
AcDbEntity
  8
Layer 1
 62
   250
100
AcDbSpline
210
0.0
220
0.0
230
1.0
 70
    11
 71
     3
 72
    20
 73
    16
 74
     0
 42
0.0000000001
 43
0.0000000001
 40
0.0
 40
0.0
 40
0.0
 40
0.0
 40
0.2
 40
0.2
 40
0.2
 40
0.2
 40
0.4
 40
0.4
 40
0.4
 40
0.4
 40
0.6
 40
0.6
 40
0.6
 40
0.6
 40
1.0
 40
1.0
 40
1.0
 40
1.0
 10
-97.6526
 20
-136.1919
 30
0.0
 10
-97.6526
 20
-136.1919
 30
0.0
 10
-91.3026
 20
-135.9273
 30
0.0
 10
-91.3026
 20
-135.9273
 30
0.0
 10
-91.3026
 20
-135.9273
 30
0.0
 10
-91.3026
 20
-135.9273
 30
0.0
 10
-77.6764
 20
-155.2419
 30
0.0
 10
-77.6764
 20
-155.2419
 30
0.0
 10
-77.6764
 20
-155.2419
 30
0.0
 10
-82.9064
 20
-162.3966
 30
0.0
 10
-89.6876
 20
-167.9345
 30
0.0
 10
-97.1234
 20
-169.2648
 30
0.0
 10
-97.1234
 20
-169.2648
 30
0.0
 10
-91.1255
 20
-155.9653
 30
0.0
 10
-87.0317
 20
-147.9925
 30
0.0
 10
-97.6526
 20
-136.1919
 30
0.0
  0
SPLINE
  5
4D
330
1F
100
AcDbEntity
  8
Layer 1
 62
   250
100
AcDbSpline
210
0.0
220
0.0
230
1.0
 70
    11
 71
     3
 72
    16
 73
    12
 74
     0
 42
0.0000000001
 43
0.0000000001
 40
0.0
 40
0.0
 40
0.0
 40
0.0
 40
0.25
 40
0.25
 40
0.25
 40
0.25
 40
0.5
 40
0.5
 40
0.5
 40
0.5
 40
1.0
 40
1.0
 40
1.0
 40
1.0
 10
-144.7486
 20
-98.0916
 30
0.0
 10
-144.7486
 20
-98.0916
 30
0.0
 10
-154.6704
 20
-93.3291
 30
0.0
 10
-154.6704
 20
-93.3291
 30
0.0
 10
-154.6704
 20
-93.3291
 30
0.0
 10
-154.6704
 20
-93.3291
 30
0.0
 10
-144.7486
 20
-93.0645
 30
0.0
 10
-144.7486
 20
-93.0645
 30
0.0
 10
-144.7486
 20
-93.0645
 30
0.0
 10
-144.7486
 20
-93.0645
 30
0.0
 10
-144.7486
 20
-98.0916
 30
0.0
 10
-144.7486
 20
-98.0916
 30
0.0
  0
SPLINE
  5
4E
330
1F
100
AcDbEntity
  8
Layer 1
 62
   250
100
AcDbSpline
210
0.0
220
0.0
230
1.0
 70
    11
 71
     3
 72
    24
 73
    20
 74
     0
 42
0.0000000001
 43
0.0000000001
 40
0.0
 40
0.0
 40
0.0
 40
0.0
 40
0.1666666666666667
 40
0.1666666666666667
 40
0.1666666666666667
 40
0.1666666666666667
 40
0.3333333333333333
 40
0.3333333333333333
 40
0.3333333333333333
 40
0.3333333333333333
 40
0.5
 40
0.5
 40
0.5
 40
0.5
 40
0.6666666666666666
 40
0.6666666666666666
 40
0.6666666666666666
 40
0.6666666666666666
 40
1.0
 40
1.0
 40
1.0
 40
1.0
 10
-134.8046
 20
-97.0333
 30
0.0
 10
-134.8046
 20
-97.0333
 30
0.0
 10
-134.4298
 20
-99.2823
 30
0.0
 10
-134.4298
 20
-99.2823
 30
0.0
 10
-134.4298
 20
-99.2823
 30
0.0
 10
-134.4298
 20
-99.2823
 30
0.0
 10
-133.2392
 20
-102.8541
 30
0.0
 10
-133.2392
 20
-102.8541
 30
0.0
 10
-133.2392
 20
-102.8541
 30
0.0
 10
-133.2392
 20
-102.8541
 30
0.0
 10
-129.6673
 20
-102.8541
 30
0.0
 10
-129.6673
 20
-102.8541
 30
0.0
 10
-129.6673
 20
-102.8541
 30
0.0
 10
-129.6673
 20
-102.8541
 30
0.0
 10
-129.1216
 20
-97.0333
 30
0.0
 10
-129.1216
 20
-97.0333
 30
0.0
 10
-129.1216
 20
-97.0333
 30
0.0
 10
-129.1216
 20
-97.0333
 30
0.0
 10
-134.8046
 20
-97.0333
 30
0.0
 10
-134.8046
 20
-97.0333
 30
0.0
  0
SPLINE
  5
4F
330
1F
100
AcDbEntity
  8
Layer 1
 62
   250
100
AcDbSpline
210
0.0
220
0.0
230
1.0
 70
    11
 71
     3
 72
    20
 73
    16
 74
     0
 42
0.0000000001
 43
0.0000000001
 40
0.0
 40
0.0
 40
0.0
 40
0.0
 40
0.2
 40
0.2
 40
0.2
 40
0.2
 40
0.4
 40
0.4
 40
0.4
 40
0.4
 40
0.6
 40
0.6
 40
0.6
 40
0.6
 40
1.0
 40
1.0
 40
1.0
 40
1.0
 10
-128.4767
 20
-90.1541
 30
0.0
 10
-128.4767
 20
-90.1541
 30
0.0
 10
-135.885
 20
-90.551
 30
0.0
 10
-135.885
 20
-90.551
 30
0.0
 10
-135.885
 20
-90.551
 30
0.0
 10
-135.885
 20
-90.551
 30
0.0
 10
-135.2897
 20
-94.1229
 30
0.0
 10
-135.2897
 20
-94.1229
 30
0.0
 10
-135.2897
 20
-94.1229
 30
0.0
 10
-135.2897
 20
-94.1229
 30
0.0
 10
-128.8488
 20
-94.1229
 30
0.0
 10
-128.8488
 20
-94.1229
 30
0.0
 10
-128.8488
 20
-94.1229
 30
0.0
 10
-128.8488
 20
-94.1229
 30
0.0
 10
-128.4767
 20
-90.1541
 30
0.0
 10
-128.4767
 20
-90.1541
 30
0.0
  0
SPLINE
  5
50
330
1F
100
AcDbEntity
  8
Layer 1
 62
   250
100
AcDbSpline
210
0.0
220
0.0
230
1.0
 70
    11
 71
     3
 72
    56
 73
    52
 74
     0
 42
0.0000000001
 43
0.0000000001
 40
0.0
 40
0.0
 40
0.0
 40
0.0
 40
0.0714285714285714
 40
0.0714285714285714
 40
0.0714285714285714
 40
0.0714285714285714
 40
0.1428571428571428
 40
0.1428571428571428
 40
0.1428571428571428
 40
0.1428571428571428
 40
0.2142857142857143
 40
0.2142857142857143
 40
0.2142857142857143
 40
0.2142857142857143
 40
0.2857142857142857
 40
0.2857142857142857
 40
0.2857142857142857
 40
0.2857142857142857
 40
0.3571428571428572
 40
0.3571428571428572
 40
0.3571428571428572
 40
0.3571428571428572
 40
0.4285714285714285
 40
0.4285714285714285
 40
0.4285714285714285
 40
0.4285714285714285
 40
0.5
 40
0.5
 40
0.5
 40
0.5
 40
0.5714285714285714
 40
0.5714285714285714
 40
0.5714285714285714
 40
0.5714285714285714
 40
0.6428571428571429
 40
0.6428571428571429
 40
0.6428571428571429
 40
0.6428571428571429
 40
0.7142857142857143
 40
0.7142857142857143
 40
0.7142857142857143
 40
0.7142857142857143
 40
0.7857142857142857
 40
0.7857142857142857
 40
0.7857142857142857
 40
0.7857142857142857
 40
0.8571428571428571
 40
0.8571428571428571
 40
0.8571428571428571
 40
0.8571428571428571
 40
1.0
 40
1.0
 40
1.0
 40
1.0
 10
-198.7225
 20
-27.7119
 30
0.0
 10
-199.9406
 20
-27.0734
 30
0.0
 10
-200.0178
 20
-25.4842
 30
0.0
 10
-199.1193
 20
-23.0817
 30
0.0
 10
-199.1193
 20
-23.0817
 30
0.0
 10
-199.1193
 20
-23.0817
 30
0.0
 10
-170.6766
 20
-6.2807
 30
0.0
 10
-170.6766
 20
-6.2807
 30
0.0
 10
-170.6766
 20
-6.2807
 30
0.0
 10
-170.6766
 20
-6.2807
 30
0.0
 10
-170.1814
 20
-6.2052
 30
0.0
 10
-170.1814
 20
-6.2052
 30
0.0
 10
-170.1814
 20
-6.2052
 30
0.0
 10
-162.942
 20
-5.0999
 30
0.0
 10
-170.6064
 20
-11.6896
 30
0.0
 10
-171.5572
 20
-12.4984
 30
0.0
 10
-171.5572
 20
-12.4984
 30
0.0
 10
-172.6269
 20
-13.4082
 30
0.0
 10
-174.6734
 20
-13.9407
 30
0.0
 10
-175.9796
 20
-14.207
 30
0.0
 10
-175.9796
 20
-14.207
 30
0.0
 10
-178.8425
 20
-14.7903
 30
0.0
 10
-177.8749
 20
-18.738
 30
0.0
 10
-180.0693
 20
-19.5439
 30
0.0
 10
-180.0693
 20
-19.5439
 30
0.0
 10
-181.1571
 20
-19.9433
 30
0.0
 10
-182.4907
 20
-19.2119
 30
0.0
 10
-182.8474
 20
-19.2453
 30
0.0
 10
-182.8474
 20
-19.2453
 30
0.0
 10
-183.7363
 20
-20.4533
 30
0.0
 10
-185.0947
 20
-20.4976
 30
0.0
 10
-185.4272
 20
-20.7327
 30
0.0
 10
-185.4272
 20
-20.7327
 30
0.0
 10
-185.7691
 20
-21.9477
 30
0.0
 10
-189.3378
 20
-22.6212
 30
0.0
 10
-190.5544
 20
-22.9948
 30
0.0
 10
-190.5544
 20
-22.9948
 30
0.0
 10
-190.5544
 20
-22.9948
 30
0.0
 10
-190.9852
 20
-23.1271
 30
0.0
 10
-190.9852
 20
-23.1271
 30
0.0
 10
-190.9852
 20
-23.1271
 30
0.0
 10
-191.5376
 20
-23.2967
 30
0.0
 10
-193.8906
 20
-24.4936
 30
0.0
 10
-193.9599
 20
-24.6692
 30
0.0
 10
-193.9599
 20
-24.6692
 30
0.0
 10
-195.496
 20
-24.9325
 30
0.0
 10
-193.9125
 20
-27.4525
 30
0.0
 10
-196.0653
 20
-27.7006
 30
0.0
 10
-196.0653
 20
-27.7006
 30
0.0
 10
-196.4829
 20
-27.7487
 30
0.0
 10
-197.9106
 20
-28.5934
 30
0.0
 10
-198.7225
 20
-27.7119
 30
0.0
  0
SPLINE
  5
51
330
1F
100
AcDbEntity
  8
Layer 1
 62
   250
100
AcDbSpline
210
0.0
220
0.0
230
1.0
 70
    11
 71
     3
 72
    36
 73
    32
 74
     0
 42
0.0000000001
 43
0.0000000001
 40
0.0
 40
0.0
 40
0.0
 40
0.0
 40
0.1111111111111111
 40
0.1111111111111111
 40
0.1111111111111111
 40
0.1111111111111111
 40
0.2222222222222222
 40
0.2222222222222222
 40
0.2222222222222222
 40
0.2222222222222222
 40
0.3333333333333333
 40
0.3333333333333333
 40
0.3333333333333333
 40
0.3333333333333333
 40
0.4444444444444444
 40
0.4444444444444444
 40
0.4444444444444444
 40
0.4444444444444444
 40
0.5555555555555556
 40
0.5555555555555556
 40
0.5555555555555556
 40
0.5555555555555556
 40
0.6666666666666666
 40
0.6666666666666666
 40
0.6666666666666666
 40
0.6666666666666666
 40
0.7777777777777778
 40
0.7777777777777778
 40
0.7777777777777778
 40
0.7777777777777778
 40
1.0
 40
1.0
 40
1.0
 40
1.0
 10
-237.7483
 20
-79.2392
 30
0.0
 10
-237.7483
 20
-79.2392
 30
0.0
 10
-237.4837
 20
-75.0059
 30
0.0
 10
-237.4837
 20
-75.0059
 30
0.0
 10
-237.4837
 20
-75.0059
 30
0.0
 10
-227.8052
 20
-51.3367
 30
0.0
 10
-216.8311
 20
-54.234
 30
0.0
 10
-205.7337
 20
-59.66
 30
0.0
 10
-205.7337
 20
-59.66
 30
0.0
 10
-201.816
 20
-65.943
 30
0.0
 10
-214.4757
 20
-69.7112
 30
0.0
 10
-213.9358
 20
-63.8254
 30
0.0
 10
-213.9358
 20
-63.8254
 30
0.0
 10
-213.9093
 20
-63.537
 30
0.0
 10
-214.6957
 20
-61.2326
 30
0.0
 10
-214.9714
 20
-60.7411
 30
0.0
 10
-214.9714
 20
-60.7411
 30
0.0
 10
-215.6172
 20
-60.6303
 30
0.0
 10
-218.0656
 20
-60.7184
 30
0.0
 10
-218.9629
 20
-60.7184
 30
0.0
 10
-218.9629
 20
-60.7184
 30
0.0
 10
-218.9629
 20
-64.0196
 30
0.0
 10
-219.7353
 20
-61.4848
 30
0.0
 10
-223.7254
 20
-63.3189
 30
0.0
 10
-223.7254
 20
-63.3189
 30
0.0
 10
-225.8834
 20
-64.3108
 30
0.0
 10
-229.723
 20
-64.8091
 30
0.0
 10
-230.5139
 20
-67.1818
 30
0.0
 10
-230.5139
 20
-67.1818
 30
0.0
 10
-231.1884
 20
-67.4067
 30
0.0
 10
-236.0663
 20
-77.6934
 30
0.0
 10
-237.7483
 20
-79.2392
 30
0.0
  0
SPLINE
  5
52
330
1F
100
AcDbEntity
  8
Layer 1
 62
   250
100
AcDbSpline
210
0.0
220
0.0
230
1.0
 70
    11
 71
     3
 72
    24
 73
    20
 74
     0
 42
0.0000000001
 43
0.0000000001
 40
0.0
 40
0.0
 40
0.0
 40
0.0
 40
0.1666666666666667
 40
0.1666666666666667
 40
0.1666666666666667
 40
0.1666666666666667
 40
0.3333333333333333
 40
0.3333333333333333
 40
0.3333333333333333
 40
0.3333333333333333
 40
0.5
 40
0.5
 40
0.5
 40
0.5
 40
0.6666666666666666
 40
0.6666666666666666
 40
0.6666666666666666
 40
0.6666666666666666
 40
1.0
 40
1.0
 40
1.0
 40
1.0
 10
-137.7342
 20
-129.6412
 30
0.0
 10
-137.7342
 20
-129.6412
 30
0.0
 10
-136.4113
 20
-124.6141
 30
0.0
 10
-136.4113
 20
-124.6141
 30
0.0
 10
-136.4113
 20
-124.6141
 30
0.0
 10
-133.2934
 20
-124.6141
 30
0.0
 10
-127.1046
 20
-123.1412
 30
0.0
 10
-127.1509
 20
-125.2719
 30
0.0
 10
-127.1509
 20
-125.2719
 30
0.0
 10
-127.2352
 20
-129.1508
 30
0.0
 10
-126.3571
 20
-128.6459
 30
0.0
 10
-126.3571
 20
-131.2287
 30
0.0
 10
-126.3571
 20
-131.2287
 30
0.0
 10
-127.207
 20
-131.2287
 30
0.0
 10
-130.4682
 20
-130.0254
 30
0.0
 10
-132.1326
 20
-129.6412
 30
0.0
 10
-132.1326
 20
-129.6412
 30
0.0
 10
-132.601
 20
-133.0794
 30
0.0
 10
-137.7342
 20
-133.0693
 30
0.0
 10
-137.7342
 20
-129.6412
 30
0.0
  0
SPLINE
  5
53
330
1F
100
AcDbEntity
  8
Layer 1
 62
   250
100
AcDbSpline
210
0.0
220
0.0
230
1.0
 70
    11
 71
     3
 72
    28
 73
    24
 74
     0
 42
0.0000000001
 43
0.0000000001
 40
0.0
 40
0.0
 40
0.0
 40
0.0
 40
0.1428571428571428
 40
0.1428571428571428
 40
0.1428571428571428
 40
0.1428571428571428
 40
0.2857142857142857
 40
0.2857142857142857
 40
0.2857142857142857
 40
0.2857142857142857
 40
0.4285714285714285
 40
0.4285714285714285
 40
0.4285714285714285
 40
0.4285714285714285
 40
0.5714285714285714
 40
0.5714285714285714
 40
0.5714285714285714
 40
0.5714285714285714
 40
0.7142857142857143
 40
0.7142857142857143
 40
0.7142857142857143
 40
0.7142857142857143
 40
1.0
 40
1.0
 40
1.0
 40
1.0
 10
-122.1237
 20
-148.0298
 30
0.0
 10
-122.1237
 20
-148.0298
 30
0.0
 10
-118.6842
 20
-145.9131
 30
0.0
 10
-118.6842
 20
-145.9131
 30
0.0
 10
-118.6842
 20
-145.9131
 30
0.0
 10
-117.7756
 20
-143.6549
 30
0.0
 10
-112.8209
 20
-144.2549
 30
0.0
 10
-112.3569
 20
-146.9943
 30
0.0
 10
-112.3569
 20
-146.9943
 30
0.0
 10
-112.2063
 20
-147.8834
 30
0.0
 10
-105.3625
 20
-155.3771
 30
0.0
 10
-109.1592
 20
-155.7027
 30
0.0
 10
-109.1592
 20
-155.7027
 30
0.0
 10
-112.6447
 20
-161.1817
 30
0.0
 10
-113.325
 20
-151.1816
 30
0.0
 10
-116.4768
 20
-156.6552
 30
0.0
 10
-116.4768
 20
-156.6552
 30
0.0
 10
-117.0321
 20
-157.6196
 30
0.0
 10
-122.3883
 20
-160.1242
 30
0.0
 10
-122.3883
 20
-151.9532
 30
0.0
 10
-122.3883
 20
-151.9532
 30
0.0
 10
-122.3883
 20
-151.3613
 30
0.0
 10
-122.1232
 20
-148.0356
 30
0.0
 10
-122.1237
 20
-148.0298
 30
0.0
  0
SPLINE
  5
54
330
1F
100
AcDbEntity
  8
Layer 1
 62
   250
100
AcDbSpline
210
0.0
220
0.0
230
1.0
 70
    11
 71
     3
 72
    56
 73
    52
 74
     0
 42
0.0000000001
 43
0.0000000001
 40
0.0
 40
0.0
 40
0.0
 40
0.0
 40
0.0714285714285714
 40
0.0714285714285714
 40
0.0714285714285714
 40
0.0714285714285714
 40
0.1428571428571428
 40
0.1428571428571428
 40
0.1428571428571428
 40
0.1428571428571428
 40
0.2142857142857143
 40
0.2142857142857143
 40
0.2142857142857143
 40
0.2142857142857143
 40
0.2857142857142857
 40
0.2857142857142857
 40
0.2857142857142857
 40
0.2857142857142857
 40
0.3571428571428572
 40
0.3571428571428572
 40
0.3571428571428572
 40
0.3571428571428572
 40
0.4285714285714285
 40
0.4285714285714285
 40
0.4285714285714285
 40
0.4285714285714285
 40
0.5
 40
0.5
 40
0.5
 40
0.5
 40
0.5714285714285714
 40
0.5714285714285714
 40
0.5714285714285714
 40
0.5714285714285714
 40
0.6428571428571429
 40
0.6428571428571429
 40
0.6428571428571429
 40
0.6428571428571429
 40
0.7142857142857143
 40
0.7142857142857143
 40
0.7142857142857143
 40
0.7142857142857143
 40
0.7857142857142857
 40
0.7857142857142857
 40
0.7857142857142857
 40
0.7857142857142857
 40
0.8571428571428571
 40
0.8571428571428571
 40
0.8571428571428571
 40
0.8571428571428571
 40
1.0
 40
1.0
 40
1.0
 40
1.0
 10
-127.9445
 20
-168.4027
 30
0.0
 10
-129.55
 20
-166.155
 30
0.0
 10
-131.679
 20
-162.8731
 30
0.0
 10
-130.3257
 20
-160.4651
 30
0.0
 10
-130.3257
 20
-160.4651
 30
0.0
 10
-129.1639
 20
-158.3978
 30
0.0
 10
-125.3339
 20
-164.4973
 30
0.0
 10
-121.4622
 20
-165.5263
 30
0.0
 10
-121.4622
 20
-165.5263
 30
0.0
 10
-117.435
 20
-166.5964
 30
0.0
 10
-121.0247
 20
-166.2914
 30
0.0
 10
-116.2801
 20
-166.7924
 30
0.0
 10
-116.2801
 20
-166.7924
 30
0.0
 10
-116.0424
 20
-166.8174
 30
0.0
 10
-116.1528
 20
-167.0262
 30
0.0
 10
-115.7736
 20
-167.0798
 30
0.0
 10
-115.7736
 20
-167.0798
 30
0.0
 10
-109.3666
 20
-167.9841
 30
0.0
 10
-104.862
 20
-165.0951
 30
0.0
 10
-101.7507
 20
-159.4068
 30
0.0
 10
-101.7507
 20
-159.4068
 30
0.0
 10
-101.4761
 20
-158.9047
 30
0.0
 10
-100.3987
 20
-159.3204
 30
0.0
 10
-100.1405
 20
-158.8096
 30
0.0
 10
-100.1405
 20
-158.8096
 30
0.0
 10
-99.5109
 20
-157.564
 30
0.0
 10
-99.3578
 20
-158.6666
 30
0.0
 10
-98.863
 20
-154.6443
 30
0.0
 10
-98.863
 20
-154.6443
 30
0.0
 10
-98.3067
 20
-150.1216
 30
0.0
 10
-95.9299
 20
-149.9762
 30
0.0
 10
-95.9299
 20
-157.0255
 30
0.0
 10
-95.9299
 20
-157.0255
 30
0.0
 10
-95.9299
 20
-158.2615
 30
0.0
 10
-95.9226
 20
-158.2946
 30
0.0
 10
-96.4591
 20
-159.1422
 30
0.0
 10
-96.4591
 20
-159.1422
 30
0.0
 10
-98.5687
 20
-162.4747
 30
0.0
 10
-99.0689
 20
-166.8334
 30
0.0
 10
-101.7507
 20
-169.7256
 30
0.0
 10
-101.7507
 20
-169.7256
 30
0.0
 10
-103.8158
 20
-171.9526
 30
0.0
 10
-106.97
 20
-173.1223
 30
0.0
 10
-109.9528
 20
-173.6943
 30
0.0
 10
-109.9528
 20
-173.6943
 30
0.0
 10
-113.5917
 20
-174.3921
 30
0.0
 10
-117.5107
 20
-174.4751
 30
0.0
 10
-121.0653
 20
-173.4297
 30
0.0
 10
-121.0653
 20
-173.4297
 30
0.0
 10
-123.79
 20
-172.6284
 30
0.0
 10
-126.2938
 20
-170.7136
 30
0.0
 10
-127.9445
 20
-168.4027
 30
0.0
  0
SPLINE
  5
55
330
1F
100
AcDbEntity
  8
Layer 1
 62
   250
100
AcDbSpline
210
0.0
220
0.0
230
1.0
 70
    11
 71
     3
 72
    28
 73
    24
 74
     0
 42
0.0000000001
 43
0.0000000001
 40
0.0
 40
0.0
 40
0.0
 40
0.0
 40
0.1428571428571428
 40
0.1428571428571428
 40
0.1428571428571428
 40
0.1428571428571428
 40
0.2857142857142857
 40
0.2857142857142857
 40
0.2857142857142857
 40
0.2857142857142857
 40
0.4285714285714285
 40
0.4285714285714285
 40
0.4285714285714285
 40
0.4285714285714285
 40
0.5714285714285714
 40
0.5714285714285714
 40
0.5714285714285714
 40
0.5714285714285714
 40
0.7142857142857143
 40
0.7142857142857143
 40
0.7142857142857143
 40
0.7142857142857143
 40
1.0
 40
1.0
 40
1.0
 40
1.0
 10
-236.0152
 20
-83.8146
 30
0.0
 10
-241.0102
 20
-97.4264
 30
0.0
 10
-239.6688
 20
-115.2095
 30
0.0
 10
-235.0873
 20
-132.3675
 30
0.0
 10
-235.0873
 20
-132.3675
 30
0.0
 10
-229.4472
 20
-153.4905
 30
0.0
 10
-218.9181
 20
-173.6039
 30
0.0
 10
-209.2386
 20
-183.858
 30
0.0
 10
-209.2386
 20
-183.858
 30
0.0
 10
-209.2386
 20
-183.858
 30
0.0
 10
-210.6918
 20
-185.2252
 30
0.0
 10
-210.6918
 20
-185.2252
 30
0.0
 10
-210.6918
 20
-185.2252
 30
0.0
 10
-220.5705
 20
-174.7601
 30
0.0
 10
-231.2957
 20
-154.3102
 30
0.0
 10
-237.0169
 20
-132.8831
 30
0.0
 10
-237.0169
 20
-132.8831
 30
0.0
 10
-241.6929
 20
-115.3709
 30
0.0
 10
-243.0412
 20
-97.164
 30
0.0
 10
-237.8902
 20
-83.127
 30
0.0
 10
-237.8902
 20
-83.127
 30
0.0
 10
-237.8902
 20
-83.127
 30
0.0
 10
-236.0152
 20
-83.8146
 30
0.0
 10
-236.0152
 20
-83.8146
 30
0.0
  0
SPLINE
  5
56
330
1F
100
AcDbEntity
  8
Layer 1
 62
   250
100
AcDbSpline
210
0.0
220
0.0
230
1.0
 70
    11
 71
     3
 72
    20
 73
    16
 74
     0
 42
0.0000000001
 43
0.0000000001
 40
0.0
 40
0.0
 40
0.0
 40
0.0
 40
0.2
 40
0.2
 40
0.2
 40
0.2
 40
0.4
 40
0.4
 40
0.4
 40
0.4
 40
0.6
 40
0.6
 40
0.6
 40
0.6
 40
1.0
 40
1.0
 40
1.0
 40
1.0
 10
-212.6108
 20
-76.0624
 30
0.0
 10
-212.6108
 20
-76.0624
 30
0.0
 10
-212.0816
 20
-69.4479
 30
0.0
 10
-212.0816
 20
-69.4479
 30
0.0
 10
-212.0816
 20
-69.4479
 30
0.0
 10
-212.0816
 20
-69.4479
 30
0.0
 10
-204.9379
 20
-72.6229
 30
0.0
 10
-204.9379
 20
-72.6229
 30
0.0
 10
-204.9379
 20
-72.6229
 30
0.0
 10
-204.9379
 20
-72.6229
 30
0.0
 10
-205.2025
 20
-80.8249
 30
0.0
 10
-205.2025
 20
-80.8249
 30
0.0
 10
-205.2025
 20
-80.8249
 30
0.0
 10
-205.2025
 20
-80.8249
 30
0.0
 10
-212.6108
 20
-76.0624
 30
0.0
 10
-212.6108
 20
-76.0624
 30
0.0
  0
SPLINE
  5
57
330
1F
100
AcDbEntity
  8
Layer 1
 62
   250
100
AcDbSpline
210
0.0
220
0.0
230
1.0
 70
    11
 71
     3
 72
    28
 73
    24
 74
     0
 42
0.0000000001
 43
0.0000000001
 40
0.0
 40
0.0
 40
0.0
 40
0.0
 40
0.1428571428571428
 40
0.1428571428571428
 40
0.1428571428571428
 40
0.1428571428571428
 40
0.2857142857142857
 40
0.2857142857142857
 40
0.2857142857142857
 40
0.2857142857142857
 40
0.4285714285714285
 40
0.4285714285714285
 40
0.4285714285714285
 40
0.4285714285714285
 40
0.5714285714285714
 40
0.5714285714285714
 40
0.5714285714285714
 40
0.5714285714285714
 40
0.7142857142857143
 40
0.7142857142857143
 40
0.7142857142857143
 40
0.7142857142857143
 40
1.0
 40
1.0
 40
1.0
 40
1.0
 10
-235.208
 20
-78.9972
 30
0.0
 10
-228.1132
 20
-73.1338
 30
0.0
 10
-221.2912
 20
-73.0168
 30
0.0
 10
-214.6472
 20
-76.6316
 30
0.0
 10
-214.6472
 20
-76.6316
 30
0.0
 10
-208.2149
 20
-80.1313
 30
0.0
 10
-202.0139
 20
-87.18
 30
0.0
 10
-195.9195
 20
-95.8613
 30
0.0
 10
-195.9195
 20
-95.8613
 30
0.0
 10
-195.9195
 20
-95.8613
 30
0.0
 10
-197.5523
 20
-97.0097
 30
0.0
 10
-197.5523
 20
-97.0097
 30
0.0
 10
-197.5523
 20
-97.0097
 30
0.0
 10
-203.4903
 20
-88.5512
 30
0.0
 10
-209.4846
 20
-81.7091
 30
0.0
 10
-215.6004
 20
-78.3816
 30
0.0
 10
-215.6004
 20
-78.3816
 30
0.0
 10
-221.5044
 20
-75.1694
 30
0.0
 10
-227.5845
 20
-75.2882
 30
0.0
 10
-233.9346
 20
-80.5363
 30
0.0
 10
-233.9346
 20
-80.5363
 30
0.0
 10
-233.9346
 20
-80.5363
 30
0.0
 10
-235.208
 20
-78.9972
 30
0.0
 10
-235.208
 20
-78.9972
 30
0.0
  0
SPLINE
  5
58
330
1F
100
AcDbEntity
  8
Layer 1
 62
   250
100
AcDbSpline
210
0.0
220
0.0
230
1.0
 70
    11
 71
     3
 72
    44
 73
    40
 74
     0
 42
0.0000000001
 43
0.0000000001
 40
0.0
 40
0.0
 40
0.0
 40
0.0
 40
0.0909090909090909
 40
0.0909090909090909
 40
0.0909090909090909
 40
0.0909090909090909
 40
0.1818181818181818
 40
0.1818181818181818
 40
0.1818181818181818
 40
0.1818181818181818
 40
0.2727272727272727
 40
0.2727272727272727
 40
0.2727272727272727
 40
0.2727272727272727
 40
0.3636363636363636
 40
0.3636363636363636
 40
0.3636363636363636
 40
0.3636363636363636
 40
0.4545454545454545
 40
0.4545454545454545
 40
0.4545454545454545
 40
0.4545454545454545
 40
0.5454545454545454
 40
0.5454545454545454
 40
0.5454545454545454
 40
0.5454545454545454
 40
0.6363636363636364
 40
0.6363636363636364
 40
0.6363636363636364
 40
0.6363636363636364
 40
0.7272727272727273
 40
0.7272727272727273
 40
0.7272727272727273
 40
0.7272727272727273
 40
0.8181818181818182
 40
0.8181818181818182
 40
0.8181818181818182
 40
0.8181818181818182
 40
1.0
 40
1.0
 40
1.0
 40
1.0
 10
-174.7301
 20
-118.0842
 30
0.0
 10
-172.5577
 20
-122.2364
 30
0.0
 10
-170.8147
 20
-126.8458
 30
0.0
 10
-169.3455
 20
-131.8024
 30
0.0
 10
-169.3455
 20
-131.8024
 30
0.0
 10
-167.8803
 20
-136.7457
 30
0.0
 10
-166.6875
 20
-142.0209
 30
0.0
 10
-165.6122
 20
-147.5253
 30
0.0
 10
-165.6122
 20
-147.5253
 30
0.0
 10
-165.6122
 20
-147.5253
 30
0.0
 10
-165.3369
 20
-148.934
 30
0.0
 10
-165.3369
 20
-148.934
 30
0.0
 10
-165.3369
 20
-148.934
 30
0.0
 10
-165.3369
 20
-148.934
 30
0.0
 10
-166.7743
 20
-149.0096
 30
0.0
 10
-166.7743
 20
-149.0096
 30
0.0
 10
-166.7743
 20
-149.0096
 30
0.0
 10
-166.7743
 20
-149.0096
 30
0.0
 10
-171.8014
 20
-149.2742
 30
0.0
 10
-171.8014
 20
-149.2742
 30
0.0
 10
-171.8014
 20
-149.2742
 30
0.0
 10
-171.8014
 20
-149.2742
 30
0.0
 10
-171.9284
 20
-146.784
 30
0.0
 10
-171.9284
 20
-146.784
 30
0.0
 10
-171.9284
 20
-146.784
 30
0.0
 10
-171.9284
 20
-146.784
 30
0.0
 10
-168.3422
 20
-146.5952
 30
0.0
 10
-168.3422
 20
-146.5952
 30
0.0
 10
-168.3422
 20
-146.5952
 30
0.0
 10
-169.3345
 20
-141.6497
 30
0.0
 10
-170.4293
 20
-136.9214
 30
0.0
 10
-171.7381
 20
-132.5056
 30
0.0
 10
-171.7381
 20
-132.5056
 30
0.0
 10
-173.1668
 20
-127.6856
 30
0.0
 10
-174.8512
 20
-123.2235
 30
0.0
 10
-176.9371
 20
-119.2366
 30
0.0
 10
-176.9371
 20
-119.2366
 30
0.0
 10
-176.9371
 20
-119.2366
 30
0.0
 10
-174.7301
 20
-118.0842
 30
0.0
 10
-174.7301
 20
-118.0842
 30
0.0
  0
SPLINE
  5
59
330
1F
100
AcDbEntity
  8
Layer 1
 62
   250
100
AcDbSpline
210
0.0
220
0.0
230
1.0
 70
    11
 71
     3
 72
    28
 73
    24
 74
     0
 42
0.0000000001
 43
0.0000000001
 40
0.0
 40
0.0
 40
0.0
 40
0.0
 40
0.1428571428571428
 40
0.1428571428571428
 40
0.1428571428571428
 40
0.1428571428571428
 40
0.2857142857142857
 40
0.2857142857142857
 40
0.2857142857142857
 40
0.2857142857142857
 40
0.4285714285714285
 40
0.4285714285714285
 40
0.4285714285714285
 40
0.4285714285714285
 40
0.5714285714285714
 40
0.5714285714285714
 40
0.5714285714285714
 40
0.5714285714285714
 40
0.7142857142857143
 40
0.7142857142857143
 40
0.7142857142857143
 40
0.7142857142857143
 40
1.0
 40
1.0
 40
1.0
 40
1.0
 10
-165.8415
 20
-156.6743
 30
0.0
 10
-165.3885
 20
-161.8389
 30
0.0
 10
-165.415
 20
-166.8504
 30
0.0
 10
-165.9777
 20
-171.6903
 30
0.0
 10
-165.9777
 20
-171.6903
 30
0.0
 10
-166.5414
 20
-176.5383
 30
0.0
 10
-167.6444
 20
-181.2102
 30
0.0
 10
-169.3435
 20
-185.6869
 30
0.0
 10
-169.3435
 20
-185.6869
 30
0.0
 10
-169.3435
 20
-185.6869
 30
0.0
 10
-171.2107
 20
-184.9837
 30
0.0
 10
-171.2107
 20
-184.9837
 30
0.0
 10
-171.2107
 20
-184.9837
 30
0.0
 10
-169.5719
 20
-180.666
 30
0.0
 10
-168.5073
 20
-176.153
 30
0.0
 10
-167.9621
 20
-171.4636
 30
0.0
 10
-167.9621
 20
-171.4636
 30
0.0
 10
-167.4159
 20
-166.7662
 30
0.0
 10
-167.3916
 20
-161.8871
 30
0.0
 10
-167.8337
 20
-156.8461
 30
0.0
 10
-167.8337
 20
-156.8461
 30
0.0
 10
-167.8337
 20
-156.8461
 30
0.0
 10
-165.8415
 20
-156.6743
 30
0.0
 10
-165.8415
 20
-156.6743
 30
0.0
  0
SPLINE
  5
5A
330
1F
100
AcDbEntity
  8
Layer 1
 62
   250
100
AcDbSpline
210
0.0
220
0.0
230
1.0
 70
    11
 71
     3
 72
   116
 73
   112
 74
     0
 42
0.0000000001
 43
0.0000000001
 40
0.0
 40
0.0
 40
0.0
 40
0.0
 40
0.0344827586206897
 40
0.0344827586206897
 40
0.0344827586206897
 40
0.0344827586206897
 40
0.0689655172413793
 40
0.0689655172413793
 40
0.0689655172413793
 40
0.0689655172413793
 40
0.103448275862069
 40
0.103448275862069
 40
0.103448275862069
 40
0.103448275862069
 40
0.1379310344827586
 40
0.1379310344827586
 40
0.1379310344827586
 40
0.1379310344827586
 40
0.1724137931034483
 40
0.1724137931034483
 40
0.1724137931034483
 40
0.1724137931034483
 40
0.2068965517241379
 40
0.2068965517241379
 40
0.2068965517241379
 40
0.2068965517241379
 40
0.2413793103448276
 40
0.2413793103448276
 40
0.2413793103448276
 40
0.2413793103448276
 40
0.2758620689655172
 40
0.2758620689655172
 40
0.2758620689655172
 40
0.2758620689655172
 40
0.3103448275862069
 40
0.3103448275862069
 40
0.3103448275862069
 40
0.3103448275862069
 40
0.3448275862068966
 40
0.3448275862068966
 40
0.3448275862068966
 40
0.3448275862068966
 40
0.3793103448275862
 40
0.3793103448275862
 40
0.3793103448275862
 40
0.3793103448275862
 40
0.4137931034482759
 40
0.4137931034482759
 40
0.4137931034482759
 40
0.4137931034482759
 40
0.4482758620689655
 40
0.4482758620689655
 40
0.4482758620689655
 40
0.4482758620689655
 40
0.4827586206896552
 40
0.4827586206896552
 40
0.4827586206896552
 40
0.4827586206896552
 40
0.5172413793103449
 40
0.5172413793103449
 40
0.5172413793103449
 40
0.5172413793103449
 40
0.5517241379310345
 40
0.5517241379310345
 40
0.5517241379310345
 40
0.5517241379310345
 40
0.5862068965517241
 40
0.5862068965517241
 40
0.5862068965517241
 40
0.5862068965517241
 40
0.6206896551724138
 40
0.6206896551724138
 40
0.6206896551724138
 40
0.6206896551724138
 40
0.6551724137931034
 40
0.6551724137931034
 40
0.6551724137931034
 40
0.6551724137931034
 40
0.6896551724137931
 40
0.6896551724137931
 40
0.6896551724137931
 40
0.6896551724137931
 40
0.7241379310344828
 40
0.7241379310344828
 40
0.7241379310344828
 40
0.7241379310344828
 40
0.7586206896551724
 40
0.7586206896551724
 40
0.7586206896551724
 40
0.7586206896551724
 40
0.7931034482758621
 40
0.7931034482758621
 40
0.7931034482758621
 40
0.7931034482758621
 40
0.8275862068965517
 40
0.8275862068965517
 40
0.8275862068965517
 40
0.8275862068965517
 40
0.8620689655172413
 40
0.8620689655172413
 40
0.8620689655172413
 40
0.8620689655172413
 40
0.896551724137931
 40
0.896551724137931
 40
0.896551724137931
 40
0.896551724137931
 40
0.9310344827586207
 40
0.9310344827586207
 40
0.9310344827586207
 40
0.9310344827586207
 40
1.0
 40
1.0
 40
1.0
 40
1.0
 10
-235.4711
 20
4.7679
 30
0.0
 10
-235.4711
 20
4.7679
 30
0.0
 10
-226.2107
 20
8.472
 30
0.0
 10
-226.2107
 20
8.472
 30
0.0
 10
-226.2107
 20
8.472
 30
0.0
 10
-226.2107
 20
8.472
 30
0.0
 10
-225.924
 20
8.5866
 30
0.0
 10
-225.924
 20
8.5866
 30
0.0
 10
-225.924
 20
8.5866
 30
0.0
 10
-225.924
 20
8.5866
 30
0.0
 10
-225.6287
 20
8.5228
 30
0.0
 10
-225.6287
 20
8.5228
 30
0.0
 10
-225.6287
 20
8.5228
 30
0.0
 10
-225.6287
 20
8.5228
 30
0.0
 10
-215.8391
 20
6.4062
 30
0.0
 10
-215.8391
 20
6.4062
 30
0.0
 10
-215.8391
 20
6.4062
 30
0.0
 10
-215.8391
 20
6.4062
 30
0.0
 10
-215.4544
 20
6.323
 30
0.0
 10
-215.4544
 20
6.323
 30
0.0
 10
-215.4544
 20
6.323
 30
0.0
 10
-215.4544
 20
6.323
 30
0.0
 10
-215.2297
 20
5.9999
 30
0.0
 10
-215.2297
 20
5.9999
 30
0.0
 10
-215.2297
 20
5.9999
 30
0.0
 10
-214.7795
 20
5.3527
 30
0.0
 10
-214.2546
 20
4.7352
 30
0.0
 10
-213.7301
 20
4.1181
 30
0.0
 10
-213.7301
 20
4.1181
 30
0.0
 10
-212.5799
 20
2.7648
 30
0.0
 10
-211.4295
 20
1.4114
 30
0.0
 10
-210.8675
 20
-0.3551
 30
0.0
 10
-210.8675
 20
-0.3551
 30
0.0
 10
-209.6442
 20
-4.2
 30
0.0
 10
-209.0832
 20
-8.1534
 30
0.0
 10
-208.5224
 20
-12.1058
 30
0.0
 10
-208.5224
 20
-12.1058
 30
0.0
 10
-208.255
 20
-13.9914
 30
0.0
 10
-207.9874
 20
-15.8771
 30
0.0
 10
-207.6612
 20
-17.678
 30
0.0
 10
-207.6612
 20
-17.678
 30
0.0
 10
-207.3907
 20
-19.1717
 30
0.0
 10
-207.0508
 20
-20.9255
 30
0.0
 10
-206.711
 20
-22.679
 30
0.0
 10
-206.711
 20
-22.679
 30
0.0
 10
-205.9779
 20
-26.4616
 30
0.0
 10
-205.2446
 20
-30.2451
 30
0.0
 10
-204.743
 20
-34.1329
 30
0.0
 10
-204.743
 20
-34.1329
 30
0.0
 10
-204.5876
 20
-35.3373
 30
0.0
 10
-204.6942
 20
-36.5322
 30
0.0
 10
-204.8002
 20
-37.7219
 30
0.0
 10
-204.8002
 20
-37.7219
 30
0.0
 10
-204.9377
 20
-39.2659
 30
0.0
 10
-205.0745
 20
-40.801
 30
0.0
 10
-204.5448
 20
-42.0811
 30
0.0
 10
-204.5448
 20
-42.0811
 30
0.0
 10
-204.5448
 20
-42.0811
 30
0.0
 10
-201.3698
 20
-49.754
 30
0.0
 10
-201.3698
 20
-49.754
 30
0.0
 10
-201.3698
 20
-49.754
 30
0.0
 10
-201.3698
 20
-49.754
 30
0.0
 10
-203.2136
 20
-50.5118
 30
0.0
 10
-203.2136
 20
-50.5118
 30
0.0
 10
-203.2136
 20
-50.5118
 30
0.0
 10
-203.2136
 20
-50.5118
 30
0.0
 10
-206.3886
 20
-42.8389
 30
0.0
 10
-206.3886
 20
-42.8389
 30
0.0
 10
-206.3886
 20
-42.8389
 30
0.0
 10
-207.1022
 20
-41.1145
 30
0.0
 10
-206.9438
 20
-39.3375
 30
0.0
 10
-206.7846
 20
-37.5501
 30
0.0
 10
-206.7846
 20
-37.5501
 30
0.0
 10
-206.6881
 20
-36.4669
 30
0.0
 10
-206.5911
 20
-35.3791
 30
0.0
 10
-206.7196
 20
-34.3829
 30
0.0
 10
-206.7196
 20
-34.3829
 30
0.0
 10
-207.2041
 20
-30.6281
 30
0.0
 10
-207.9381
 20
-26.8408
 30
0.0
 10
-208.672
 20
-23.054
 30
0.0
 10
-208.672
 20
-23.054
 30
0.0
 10
-208.9793
 20
-21.4679
 30
0.0
 10
-209.2868
 20
-19.8814
 30
0.0
 10
-209.6222
 20
-18.0297
 30
0.0
 10
-209.6222
 20
-18.0297
 30
0.0
 10
-209.9691
 20
-16.1139
 30
0.0
 10
-210.2342
 20
-14.2465
 30
0.0
 10
-210.499
 20
-12.3792
 30
0.0
 10
-210.499
 20
-12.3792
 30
0.0
 10
-211.0493
 20
-8.5012
 30
0.0
 10
-211.5997
 20
-4.6221
 30
0.0
 10
-212.7659
 20
-0.9567
 30
0.0
 10
-212.7659
 20
-0.9567
 30
0.0
 10
-213.2027
 20
0.4162
 30
0.0
 10
-214.2282
 20
1.6227
 30
0.0
 10
-215.2535
 20
2.8291
 30
0.0
 10
-215.2535
 20
2.8291
 30
0.0
 10
-215.7293
 20
3.3889
 30
0.0
 10
-216.2052
 20
3.9488
 30
0.0
 10
-216.6373
 20
4.5344
 30
0.0
 10
-216.6373
 20
4.5344
 30
0.0
 10
-216.6373
 20
4.5344
 30
0.0
 10
-225.7551
 20
6.5057
 30
0.0
 10
-225.7551
 20
6.5057
 30
0.0
 10
-225.7551
 20
6.5057
 30
0.0
 10
-225.7551
 20
6.5057
 30
0.0
 10
-234.7289
 20
2.9163
 30
0.0
 10
-234.7289
 20
2.9163
 30
0.0
 10
-234.7289
 20
2.9163
 30
0.0
 10
-234.7289
 20
2.9163
 30
0.0
 10
-235.4711
 20
4.7679
 30
0.0
 10
-235.4711
 20
4.7679
 30
0.0
  0
SPLINE
  5
5B
330
1F
100
AcDbEntity
  8
Layer 1
 62
   250
100
AcDbSpline
210
0.0
220
0.0
230
1.0
 70
    11
 71
     3
 72
    20
 73
    16
 74
     0
 42
0.0000000001
 43
0.0000000001
 40
0.0
 40
0.0
 40
0.0
 40
0.0
 40
0.2
 40
0.2
 40
0.2
 40
0.2
 40
0.4
 40
0.4
 40
0.4
 40
0.4
 40
0.6
 40
0.6
 40
0.6
 40
0.6
 40
1.0
 40
1.0
 40
1.0
 40
1.0
 10
-231.3665
 20
-49.1522
 30
0.0
 10
-231.3665
 20
-49.1522
 30
0.0
 10
-211.7873
 20
-49.6813
 30
0.0
 10
-211.7873
 20
-49.6813
 30
0.0
 10
-211.7873
 20
-49.6813
 30
0.0
 10
-211.7873
 20
-49.6813
 30
0.0
 10
-211.8459
 20
-52.1715
 30
0.0
 10
-211.8459
 20
-52.1715
 30
0.0
 10
-211.8459
 20
-52.1715
 30
0.0
 10
-211.8459
 20
-52.1715
 30
0.0
 10
-231.4251
 20
-51.6424
 30
0.0
 10
-231.4251
 20
-51.6424
 30
0.0
 10
-231.4251
 20
-51.6424
 30
0.0
 10
-231.4251
 20
-51.6424
 30
0.0
 10
-231.3665
 20
-49.1522
 30
0.0
 10
-231.3665
 20
-49.1522
 30
0.0
  0
SPLINE
  5
5C
330
1F
100
AcDbEntity
  8
Layer 1
 62
   250
100
AcDbSpline
210
0.0
220
0.0
230
1.0
 70
    11
 71
     3
 72
    68
 73
    64
 74
     0
 42
0.0000000001
 43
0.0000000001
 40
0.0
 40
0.0
 40
0.0
 40
0.0
 40
0.0588235294117647
 40
0.0588235294117647
 40
0.0588235294117647
 40
0.0588235294117647
 40
0.1176470588235294
 40
0.1176470588235294
 40
0.1176470588235294
 40
0.1176470588235294
 40
0.1764705882352941
 40
0.1764705882352941
 40
0.1764705882352941
 40
0.1764705882352941
 40
0.2352941176470588
 40
0.2352941176470588
 40
0.2352941176470588
 40
0.2352941176470588
 40
0.2941176470588235
 40
0.2941176470588235
 40
0.2941176470588235
 40
0.2941176470588235
 40
0.3529411764705883
 40
0.3529411764705883
 40
0.3529411764705883
 40
0.3529411764705883
 40
0.4117647058823529
 40
0.4117647058823529
 40
0.4117647058823529
 40
0.4117647058823529
 40
0.4705882352941176
 40
0.4705882352941176
 40
0.4705882352941176
 40
0.4705882352941176
 40
0.5294117647058824
 40
0.5294117647058824
 40
0.5294117647058824
 40
0.5294117647058824
 40
0.5882352941176471
 40
0.5882352941176471
 40
0.5882352941176471
 40
0.5882352941176471
 40
0.6470588235294118
 40
0.6470588235294118
 40
0.6470588235294118
 40
0.6470588235294118
 40
0.7058823529411765
 40
0.7058823529411765
 40
0.7058823529411765
 40
0.7058823529411765
 40
0.7647058823529411
 40
0.7647058823529411
 40
0.7647058823529411
 40
0.7647058823529411
 40
0.8235294117647058
 40
0.8235294117647058
 40
0.8235294117647058
 40
0.8235294117647058
 40
0.8823529411764706
 40
0.8823529411764706
 40
0.8823529411764706
 40
0.8823529411764706
 40
1.0
 40
1.0
 40
1.0
 40
1.0
 10
-162.5785
 20
-22.3107
 30
0.0
 10
-163.3525
 20
-24.7745
 30
0.0
 10
-163.9154
 20
-27.5231
 30
0.0
 10
-163.958
 20
-31.1035
 30
0.0
 10
-163.958
 20
-31.1035
 30
0.0
 10
-163.9614
 20
-31.3926
 30
0.0
 10
-163.7105
 20
-34.7772
 30
0.0
 10
-163.6943
 20
-35.8936
 30
0.0
 10
-163.6943
 20
-35.8936
 30
0.0
 10
-162.6835
 20
-35.0694
 30
0.0
 10
-161.7114
 20
-34.2687
 30
0.0
 10
-160.8438
 20
-33.6738
 30
0.0
 10
-160.8438
 20
-33.6738
 30
0.0
 10
-160.2605
 20
-33.8379
 30
0.0
 10
-159.7123
 20
-33.4783
 30
0.0
 10
-159.5209
 20
-32.9254
 30
0.0
 10
-159.5209
 20
-32.9254
 30
0.0
 10
-158.8802
 20
-32.8309
 30
0.0
 10
-156.96
 20
-32.2292
 30
0.0
 10
-155.321
 20
-32.3254
 30
0.0
 10
-155.321
 20
-32.3254
 30
0.0
 10
-155.321
 20
-32.3254
 30
0.0
 10
-153.4408
 20
-31.6327
 30
0.0
 10
-153.4408
 20
-31.6327
 30
0.0
 10
-153.4408
 20
-31.6327
 30
0.0
 10
-153.1272
 20
-31.9302
 30
0.0
 10
-152.4537
 20
-32.2293
 30
0.0
 10
-152.1484
 20
-32.5301
 30
0.0
 10
-152.1484
 20
-32.5301
 30
0.0
 10
-151.116
 20
-32.6237
 30
0.0
 10
-150.5877
 20
-36.1022
 30
0.0
 10
-148.4084
 20
-34.4675
 30
0.0
 10
-148.4084
 20
-34.4675
 30
0.0
 10
-147.5495
 20
-34.7091
 30
0.0
 10
-145.8047
 20
-33.0279
 30
0.0
 10
-145.1124
 20
-32.9027
 30
0.0
 10
-145.1124
 20
-32.9027
 30
0.0
 10
-141.301
 20
-31.4483
 30
0.0
 10
-136.8987
 20
-36.7317
 30
0.0
 10
-135.4228
 20
-34.766
 30
0.0
 10
-135.4228
 20
-34.766
 30
0.0
 10
-136.016
 20
-32.6558
 30
0.0
 10
-137.4831
 20
-33.8581
 30
0.0
 10
-137.235
 20
-28.0608
 30
0.0
 10
-137.235
 20
-28.0608
 30
0.0
 10
-137.1704
 20
-26.5492
 30
0.0
 10
-137.0867
 20
-24.703
 30
0.0
 10
-137.294
 20
-23.096
 30
0.0
 10
-137.294
 20
-23.096
 30
0.0
 10
-138.1187
 20
-22.908
 30
0.0
 10
-139.2371
 20
-22.7224
 30
0.0
 10
-140.7582
 20
-22.3649
 30
0.0
 10
-140.7582
 20
-22.3649
 30
0.0
 10
-145.8804
 20
-21.1607
 30
0.0
 10
-139.7515
 20
-19.5737
 30
0.0
 10
-151.4511
 20
-21.042
 30
0.0
 10
-151.4511
 20
-21.042
 30
0.0
 10
-153.8324
 20
-21.8873
 30
0.0
 10
-158.9651
 20
-22.2163
 30
0.0
 10
-162.5784
 20
-22.3107
 30
0.0
 10
-162.5784
 20
-22.3107
 30
0.0
 10
-162.5784
 20
-22.3107
 30
0.0
 10
-162.5785
 20
-22.3107
 30
0.0
 10
-162.5785
 20
-22.3107
 30
0.0
  0
SPLINE
  5
5D
330
1F
100
AcDbEntity
  8
Layer 1
 62
   250
100
AcDbSpline
210
0.0
220
0.0
230
1.0
 70
    11
 71
     3
 72
    24
 73
    20
 74
     0
 42
0.0000000001
 43
0.0000000001
 40
0.0
 40
0.0
 40
0.0
 40
0.0
 40
0.1666666666666667
 40
0.1666666666666667
 40
0.1666666666666667
 40
0.1666666666666667
 40
0.3333333333333333
 40
0.3333333333333333
 40
0.3333333333333333
 40
0.3333333333333333
 40
0.5
 40
0.5
 40
0.5
 40
0.5
 40
0.6666666666666666
 40
0.6666666666666666
 40
0.6666666666666666
 40
0.6666666666666666
 40
1.0
 40
1.0
 40
1.0
 40
1.0
 10
-112.0514
 20
146.6746
 30
0.0
 10
-111.2578
 20
144.5695
 30
0.0
 10
-110.8949
 20
142.2293
 30
0.0
 10
-110.5577
 20
141.8746
 30
0.0
 10
-110.5577
 20
141.8746
 30
0.0
 10
-109.0904
 20
143.5411
 30
0.0
 10
-105.2975
 20
147.0951
 30
0.0
 10
-105.0355
 20
148.8634
 30
0.0
 10
-105.0355
 20
148.8634
 30
0.0
 10
-104.7459
 20
150.8179
 30
0.0
 10
-104.5246
 20
151.6665
 30
0.0
 10
-104.4611
 20
153.1239
 30
0.0
 10
-104.4611
 20
153.1239
 30
0.0
 10
-106.6105
 20
150.2158
 30
0.0
 10
-107.3229
 20
153.3942
 30
0.0
 10
-107.1296
 20
146.9454
 30
0.0
 10
-107.1296
 20
146.9454
 30
0.0
 10
-107.1028
 20
146.0511
 30
0.0
 10
-109.3997
 20
146.2976
 30
0.0
 10
-112.0514
 20
146.6746
 30
0.0
  0
SPLINE
  5
5E
330
1F
100
AcDbEntity
  8
Layer 1
 62
   250
100
AcDbSpline
210
0.0
220
0.0
230
1.0
 70
    11
 71
     3
 72
    48
 73
    44
 74
     0
 42
0.0000000001
 43
0.0000000001
 40
0.0
 40
0.0
 40
0.0
 40
0.0
 40
0.0833333333333333
 40
0.0833333333333333
 40
0.0833333333333333
 40
0.0833333333333333
 40
0.1666666666666667
 40
0.1666666666666667
 40
0.1666666666666667
 40
0.1666666666666667
 40
0.25
 40
0.25
 40
0.25
 40
0.25
 40
0.3333333333333333
 40
0.3333333333333333
 40
0.3333333333333333
 40
0.3333333333333333
 40
0.4166666666666667
 40
0.4166666666666667
 40
0.4166666666666667
 40
0.4166666666666667
 40
0.5
 40
0.5
 40
0.5
 40
0.5
 40
0.5833333333333334
 40
0.5833333333333334
 40
0.5833333333333334
 40
0.5833333333333334
 40
0.6666666666666666
 40
0.6666666666666666
 40
0.6666666666666666
 40
0.6666666666666666
 40
0.75
 40
0.75
 40
0.75
 40
0.75
 40
0.8333333333333334
 40
0.8333333333333334
 40
0.8333333333333334
 40
0.8333333333333334
 40
1.0
 40
1.0
 40
1.0
 40
1.0
 10
-56.7873
 20
22.6612
 30
0.0
 10
-56.7927
 20
22.6864
 30
0.0
 10
-56.7976
 20
22.712
 30
0.0
 10
-56.8014
 20
22.7391
 30
0.0
 10
-56.8014
 20
22.7391
 30
0.0
 10
-57.2923
 20
26.1753
 30
0.0
 10
-54.1111
 20
29.215
 30
0.0
 10
-52.0389
 20
31.9996
 30
0.0
 10
-52.0389
 20
31.9996
 30
0.0
 10
-51.19
 20
33.1404
 30
0.0
 10
-48.6385
 20
32.727
 30
0.0
 10
-48.3347
 20
34.1162
 30
0.0
 10
-48.3347
 20
34.1162
 30
0.0
 10
-47.9631
 20
35.8155
 30
0.0
 10
-49.7641
 20
37.4839
 30
0.0
 10
-50.1988
 20
39.1396
 30
0.0
 10
-50.1988
 20
39.1396
 30
0.0
 10
-52.3203
 20
40.1356
 30
0.0
 10
-54.5935
 20
40.6961
 30
0.0
 10
-55.033
 20
41.8196
 30
0.0
 10
-55.033
 20
41.8196
 30
0.0
 10
-59.4964
 20
44.0623
 30
0.0
 10
-63.118
 20
42.3942
 30
0.0
 10
-68.7131
 20
43.5128
 30
0.0
 10
-68.7131
 20
43.5128
 30
0.0
 10
-69.6891
 20
43.1616
 30
0.0
 10
-71.4113
 20
43.5081
 30
0.0
 10
-71.3535
 20
42.5829
 30
0.0
 10
-71.3535
 20
42.5829
 30
0.0
 10
-71.3535
 20
42.5829
 30
0.0
 10
-70.5597
 20
29.8829
 30
0.0
 10
-70.5597
 20
29.8829
 30
0.0
 10
-70.5597
 20
29.8829
 30
0.0
 10
-71.2885
 20
29.8373
 30
0.0
 10
-72.0658
 20
29.9542
 30
0.0
 10
-72.8166
 20
29.9818
 30
0.0
 10
-72.8166
 20
29.9818
 30
0.0
 10
-71.3059
 20
26.4142
 30
0.0
 10
-68.4798
 20
19.8171
 30
0.0
 10
-65.0872
 20
21.3597
 30
0.0
 10
-65.0872
 20
21.3597
 30
0.0
 10
-62.8775
 20
22.3644
 30
0.0
 10
-59.7498
 20
22.3596
 30
0.0
 10
-56.7873
 20
22.6612
 30
0.0
  0
SPLINE
  5
5F
330
1F
100
AcDbEntity
  8
Layer 1
 62
   250
100
AcDbSpline
210
0.0
220
0.0
230
1.0
 70
    11
 71
     3
 72
    68
 73
    64
 74
     0
 42
0.0000000001
 43
0.0000000001
 40
0.0
 40
0.0
 40
0.0
 40
0.0
 40
0.0588235294117647
 40
0.0588235294117647
 40
0.0588235294117647
 40
0.0588235294117647
 40
0.1176470588235294
 40
0.1176470588235294
 40
0.1176470588235294
 40
0.1176470588235294
 40
0.1764705882352941
 40
0.1764705882352941
 40
0.1764705882352941
 40
0.1764705882352941
 40
0.2352941176470588
 40
0.2352941176470588
 40
0.2352941176470588
 40
0.2352941176470588
 40
0.2941176470588235
 40
0.2941176470588235
 40
0.2941176470588235
 40
0.2941176470588235
 40
0.3529411764705883
 40
0.3529411764705883
 40
0.3529411764705883
 40
0.3529411764705883
 40
0.4117647058823529
 40
0.4117647058823529
 40
0.4117647058823529
 40
0.4117647058823529
 40
0.4705882352941176
 40
0.4705882352941176
 40
0.4705882352941176
 40
0.4705882352941176
 40
0.5294117647058824
 40
0.5294117647058824
 40
0.5294117647058824
 40
0.5294117647058824
 40
0.5882352941176471
 40
0.5882352941176471
 40
0.5882352941176471
 40
0.5882352941176471
 40
0.6470588235294118
 40
0.6470588235294118
 40
0.6470588235294118
 40
0.6470588235294118
 40
0.7058823529411765
 40
0.7058823529411765
 40
0.7058823529411765
 40
0.7058823529411765
 40
0.7647058823529411
 40
0.7647058823529411
 40
0.7647058823529411
 40
0.7647058823529411
 40
0.8235294117647058
 40
0.8235294117647058
 40
0.8235294117647058
 40
0.8235294117647058
 40
0.8823529411764706
 40
0.8823529411764706
 40
0.8823529411764706
 40
0.8823529411764706
 40
1.0
 40
1.0
 40
1.0
 40
1.0
 10
-166.3196
 20
-24.8638
 30
0.0
 10
-166.0374
 20
-23.4736
 30
0.0
 10
-165.6639
 20
-22.1133
 30
0.0
 10
-165.2025
 20
-20.7157
 30
0.0
 10
-165.2025
 20
-20.7157
 30
0.0
 10
-165.2025
 20
-20.7157
 30
0.0
 10
-161.6303
 20
-18.9958
 30
0.0
 10
-161.6303
 20
-18.9958
 30
0.0
 10
-161.6303
 20
-18.9958
 30
0.0
 10
-161.5006
 20
-18.8864
 30
0.0
 10
-161.3753
 20
-18.7724
 30
0.0
 10
-161.2555
 20
-18.6526
 30
0.0
 10
-161.2555
 20
-18.6526
 30
0.0
 10
-160.2077
 20
-15.9851
 30
0.0
 10
-159.0912
 20
-13.322
 30
0.0
 10
-158.379
 20
-9.8273
 30
0.0
 10
-158.379
 20
-9.8273
 30
0.0
 10
-157.7173
 20
-6.5806
 30
0.0
 10
-155.564
 20
-1.8001
 30
0.0
 10
-153.5527
 20
2.3818
 30
0.0
 10
-153.5527
 20
2.3818
 30
0.0
 10
-153.5527
 20
2.3818
 30
0.0
 10
-155.9053
 20
3.8057
 30
0.0
 10
-155.9053
 20
3.8057
 30
0.0
 10
-155.9053
 20
3.8057
 30
0.0
 10
-156.9404
 20
1.766
 30
0.0
 10
-157.963
 20
-0.2804
 30
0.0
 10
-158.8598
 20
-2.4586
 30
0.0
 10
-158.8598
 20
-2.4586
 30
0.0
 10
-159.7469
 20
-4.6135
 30
0.0
 10
-160.3486
 20
-6.8437
 30
0.0
 10
-160.9454
 20
-9.0563
 30
0.0
 10
-160.9454
 20
-9.0563
 30
0.0
 10
-161.1256
 20
-9.7246
 30
0.0
 10
-161.3054
 20
-10.3905
 30
0.0
 10
-161.4124
 20
-10.774
 30
0.0
 10
-161.4124
 20
-10.774
 30
0.0
 10
-161.6073
 20
-11.4724
 30
0.0
 10
-161.7315
 20
-12.1198
 30
0.0
 10
-161.8525
 20
-12.7522
 30
0.0
 10
-161.8525
 20
-12.7522
 30
0.0
 10
-162.1069
 20
-14.0806
 30
0.0
 10
-162.3473
 20
-15.3357
 30
0.0
 10
-163.1588
 20
-16.3833
 30
0.0
 10
-163.1588
 20
-16.3833
 30
0.0
 10
-163.5658
 20
-16.9088
 30
0.0
 10
-164.3558
 20
-17.7618
 30
0.0
 10
-165.0728
 20
-18.2135
 30
0.0
 10
-165.0728
 20
-18.2135
 30
0.0
 10
-166.4365
 20
-19.0724
 30
0.0
 10
-167.7814
 20
-19.9199
 30
0.0
 10
-168.0505
 20
-21.599
 30
0.0
 10
-168.0505
 20
-21.599
 30
0.0
 10
-168.1404
 20
-22.16
 30
0.0
 10
-168.2686
 20
-22.8947
 30
0.0
 10
-168.393
 20
-23.6082
 30
0.0
 10
-168.393
 20
-23.6082
 30
0.0
 10
-168.4553
 20
-23.9655
 30
0.0
 10
-168.5166
 20
-24.3167
 30
0.0
 10
-168.5757
 20
-24.6654
 30
0.0
 10
-168.5757
 20
-24.6654
 30
0.0
 10
-168.5757
 20
-24.6654
 30
0.0
 10
-166.3196
 20
-24.8638
 30
0.0
 10
-166.3196
 20
-24.8638
 30
0.0
  0
SPLINE
  5
60
330
1F
100
AcDbEntity
  8
Layer 1
 62
   250
100
AcDbSpline
210
0.0
220
0.0
230
1.0
 70
    11
 71
     3
 72
   116
 73
   112
 74
     0
 42
0.0000000001
 43
0.0000000001
 40
0.0
 40
0.0
 40
0.0
 40
0.0
 40
0.0344827586206897
 40
0.0344827586206897
 40
0.0344827586206897
 40
0.0344827586206897
 40
0.0689655172413793
 40
0.0689655172413793
 40
0.0689655172413793
 40
0.0689655172413793
 40
0.103448275862069
 40
0.103448275862069
 40
0.103448275862069
 40
0.103448275862069
 40
0.1379310344827586
 40
0.1379310344827586
 40
0.1379310344827586
 40
0.1379310344827586
 40
0.1724137931034483
 40
0.1724137931034483
 40
0.1724137931034483
 40
0.1724137931034483
 40
0.2068965517241379
 40
0.2068965517241379
 40
0.2068965517241379
 40
0.2068965517241379
 40
0.2413793103448276
 40
0.2413793103448276
 40
0.2413793103448276
 40
0.2413793103448276
 40
0.2758620689655172
 40
0.2758620689655172
 40
0.2758620689655172
 40
0.2758620689655172
 40
0.3103448275862069
 40
0.3103448275862069
 40
0.3103448275862069
 40
0.3103448275862069
 40
0.3448275862068966
 40
0.3448275862068966
 40
0.3448275862068966
 40
0.3448275862068966
 40
0.3793103448275862
 40
0.3793103448275862
 40
0.3793103448275862
 40
0.3793103448275862
 40
0.4137931034482759
 40
0.4137931034482759
 40
0.4137931034482759
 40
0.4137931034482759
 40
0.4482758620689655
 40
0.4482758620689655
 40
0.4482758620689655
 40
0.4482758620689655
 40
0.4827586206896552
 40
0.4827586206896552
 40
0.4827586206896552
 40
0.4827586206896552
 40
0.5172413793103449
 40
0.5172413793103449
 40
0.5172413793103449
 40
0.5172413793103449
 40
0.5517241379310345
 40
0.5517241379310345
 40
0.5517241379310345
 40
0.5517241379310345
 40
0.5862068965517241
 40
0.5862068965517241
 40
0.5862068965517241
 40
0.5862068965517241
 40
0.6206896551724138
 40
0.6206896551724138
 40
0.6206896551724138
 40
0.6206896551724138
 40
0.6551724137931034
 40
0.6551724137931034
 40
0.6551724137931034
 40
0.6551724137931034
 40
0.6896551724137931
 40
0.6896551724137931
 40
0.6896551724137931
 40
0.6896551724137931
 40
0.7241379310344828
 40
0.7241379310344828
 40
0.7241379310344828
 40
0.7241379310344828
 40
0.7586206896551724
 40
0.7586206896551724
 40
0.7586206896551724
 40
0.7586206896551724
 40
0.7931034482758621
 40
0.7931034482758621
 40
0.7931034482758621
 40
0.7931034482758621
 40
0.8275862068965517
 40
0.8275862068965517
 40
0.8275862068965517
 40
0.8275862068965517
 40
0.8620689655172413
 40
0.8620689655172413
 40
0.8620689655172413
 40
0.8620689655172413
 40
0.896551724137931
 40
0.896551724137931
 40
0.896551724137931
 40
0.896551724137931
 40
0.9310344827586207
 40
0.9310344827586207
 40
0.9310344827586207
 40
0.9310344827586207
 40
1.0
 40
1.0
 40
1.0
 40
1.0
 10
-127.0521
 20
-70.7356
 30
0.0
 10
-129.0441
 20
-71.1923
 30
0.0
 10
-131.272
 20
-70.5311
 30
0.0
 10
-133.2351
 20
-70.1714
 30
0.0
 10
-133.2351
 20
-70.1714
 30
0.0
 10
-133.8712
 20
-70.0548
 30
0.0
 10
-135.366
 20
-69.8012
 30
0.0
 10
-135.9735
 20
-70.0974
 30
0.0
 10
-135.9735
 20
-70.0974
 30
0.0
 10
-135.9735
 20
-70.0974
 30
0.0
 10
-136.8576
 20
-70.5283
 30
0.0
 10
-136.8576
 20
-70.5283
 30
0.0
 10
-136.8576
 20
-70.5283
 30
0.0
 10
-136.8576
 20
-70.5283
 30
0.0
 10
-137.0737
 20
-71.5658
 30
0.0
 10
-137.0737
 20
-71.5658
 30
0.0
 10
-137.0737
 20
-71.5658
 30
0.0
 10
-137.0737
 20
-71.5658
 30
0.0
 10
-116.4362
 20
-100.67
 30
0.0
 10
-116.4362
 20
-100.67
 30
0.0
 10
-116.4362
 20
-100.67
 30
0.0
 10
-117.6136
 20
-101.5183
 30
0.0
 10
-120.1977
 20
-101.9347
 30
0.0
 10
-120.4918
 20
-102.919
 30
0.0
 10
-120.4918
 20
-102.919
 30
0.0
 10
-118.0839
 20
-109.753
 30
0.0
 10
-112.1546
 20
-102.3519
 30
0.0
 10
-112.4674
 20
-109.6658
 30
0.0
 10
-112.4674
 20
-109.6658
 30
0.0
 10
-112.6218
 20
-113.2762
 30
0.0
 10
-108.2341
 20
-110.9491
 30
0.0
 10
-108.2341
 20
-118.6617
 30
0.0
 10
-108.2341
 20
-118.6617
 30
0.0
 10
-109.9108
 20
-118.6617
 30
0.0
 10
-115.1527
 20
-118.2689
 30
0.0
 10
-115.1133
 20
-119.1908
 30
0.0
 10
-115.1133
 20
-119.1908
 30
0.0
 10
-115.0346
 20
-121.0309
 30
0.0
 10
-116.0623
 20
-122.7516
 30
0.0
 10
-114.1872
 20
-123.5338
 30
0.0
 10
-114.1872
 20
-123.5338
 30
0.0
 10
-110.8251
 20
-120.972
 30
0.0
 10
-108.338
 20
-119.3943
 30
0.0
 10
-107.1304
 20
-125.2309
 30
0.0
 10
-107.1304
 20
-125.2309
 30
0.0
 10
-105.6253
 20
-125.7519
 30
0.0
 10
-102.1358
 20
-123.1877
 30
0.0
 10
-101.3096
 20
-120.9597
 30
0.0
 10
-101.3096
 20
-120.9597
 30
0.0
 10
-100.9315
 20
-119.9403
 30
0.0
 10
-99.9098
 20
-119.3678
 30
0.0
 10
-99.7221
 20
-118.1779
 30
0.0
 10
-99.7221
 20
-118.1779
 30
0.0
 10
-99.1341
 20
-117.8386
 30
0.0
 10
-97.625
 20
-115.628
 30
0.0
 10
-96.857
 20
-114.9575
 30
0.0
 10
-96.857
 20
-114.9575
 30
0.0
 10
-96.857
 20
-114.9575
 30
0.0
 10
-85.4799
 20
-109.1367
 30
0.0
 10
-85.4799
 20
-109.1367
 30
0.0
 10
-85.4799
 20
-109.1367
 30
0.0
 10
-85.4799
 20
-109.1367
 30
0.0
 10
-70.1341
 20
-104.6388
 30
0.0
 10
-70.1341
 20
-104.6388
 30
0.0
 10
-70.1341
 20
-104.6388
 30
0.0
 10
-70.1341
 20
-104.6388
 30
0.0
 10
-53.4653
 20
-103.0513
 30
0.0
 10
-53.4653
 20
-103.0513
 30
0.0
 10
-53.4653
 20
-103.0513
 30
0.0
 10
-53.3078
 20
-102.1364
 30
0.0
 10
-52.1779
 20
-99.1828
 30
0.0
 10
-54.2591
 20
-99.3471
 30
0.0
 10
-54.2591
 20
-99.3471
 30
0.0
 10
-54.541
 20
-98.5328
 30
0.0
 10
-58.2461
 20
-97.7596
 30
0.0
 10
-58.8894
 20
-97.7596
 30
0.0
 10
-58.8894
 20
-97.7596
 30
0.0
 10
-67.4763
 20
-98.3651
 30
0.0
 10
-77.0694
 20
-99.9765
 30
0.0
 10
-88.1258
 20
-103.0513
 30
0.0
 10
-88.1258
 20
-103.0513
 30
0.0
 10
-88.1258
 20
-103.0513
 30
0.0
 10
-93.4174
 20
-105.6971
 30
0.0
 10
-93.4174
 20
-105.6971
 30
0.0
 10
-93.4174
 20
-105.6971
 30
0.0
 10
-93.4174
 20
-105.6971
 30
0.0
 10
-100.032
 20
-105.6971
 30
0.0
 10
-100.032
 20
-105.6971
 30
0.0
 10
-100.032
 20
-105.6971
 30
0.0
 10
-100.032
 20
-105.6971
 30
0.0
 10
-101.7329
 20
-105.8711
 30
0.0
 10
-101.7329
 20
-105.8711
 30
0.0
 10
-101.7329
 20
-105.8711
 30
0.0
 10
-102.1163
 20
-106.7075
 30
0.0
 10
-109.0279
 20
-109.3963
 30
0.0
 10
-109.0279
 20
-104.1096
 30
0.0
 10
-109.0279
 20
-104.1096
 30
0.0
 10
-109.0279
 20
-100.3527
 30
0.0
 10
-107.3081
 20
-94.8493
 30
0.0
 10
-111.0992
 20
-94.8493
 30
0.0
 10
-111.0992
 20
-94.8493
 30
0.0
 10
-112.4372
 20
-94.8493
 30
0.0
 10
-113.7753
 20
-94.8493
 30
0.0
 10
-115.1133
 20
-94.8493
 30
0.0
 10
-115.1133
 20
-94.8493
 30
0.0
 10
-115.1133
 20
-94.8493
 30
0.0
 10
-126.7549
 20
-74.7408
 30
0.0
 10
-126.7549
 20
-74.7408
 30
0.0
 10
-126.7549
 20
-74.7408
 30
0.0
 10
-126.2515
 20
-74.437
 30
0.0
 10
-125.4526
 20
-72.2026
 30
0.0
 10
-127.0521
 20
-70.7356
 30
0.0
  0
SPLINE
  5
61
330
1F
100
AcDbEntity
  8
Layer 1
 62
   250
100
AcDbSpline
210
0.0
220
0.0
230
1.0
 70
    11
 71
     3
 72
    60
 73
    56
 74
     0
 42
0.0000000001
 43
0.0000000001
 40
0.0
 40
0.0
 40
0.0
 40
0.0
 40
0.0666666666666667
 40
0.0666666666666667
 40
0.0666666666666667
 40
0.0666666666666667
 40
0.1333333333333333
 40
0.1333333333333333
 40
0.1333333333333333
 40
0.1333333333333333
 40
0.2
 40
0.2
 40
0.2
 40
0.2
 40
0.2666666666666667
 40
0.2666666666666667
 40
0.2666666666666667
 40
0.2666666666666667
 40
0.3333333333333333
 40
0.3333333333333333
 40
0.3333333333333333
 40
0.3333333333333333
 40
0.4
 40
0.4
 40
0.4
 40
0.4
 40
0.4666666666666667
 40
0.4666666666666667
 40
0.4666666666666667
 40
0.4666666666666667
 40
0.5333333333333333
 40
0.5333333333333333
 40
0.5333333333333333
 40
0.5333333333333333
 40
0.6
 40
0.6
 40
0.6
 40
0.6
 40
0.6666666666666666
 40
0.6666666666666666
 40
0.6666666666666666
 40
0.6666666666666666
 40
0.7333333333333333
 40
0.7333333333333333
 40
0.7333333333333333
 40
0.7333333333333333
 40
0.8
 40
0.8
 40
0.8
 40
0.8
 40
0.8666666666666667
 40
0.8666666666666667
 40
0.8666666666666667
 40
0.8666666666666667
 40
1.0
 40
1.0
 40
1.0
 40
1.0
 10
-123.0293
 20
-58.1915
 30
0.0
 10
-123.2835
 20
-58.8186
 30
0.0
 10
-123.5642
 20
-59.4343
 30
0.0
 10
-123.8499
 20
-60.0372
 30
0.0
 10
-123.8499
 20
-60.0372
 30
0.0
 10
-124.3837
 20
-61.1637
 30
0.0
 10
-123.6138
 20
-62.7453
 30
0.0
 10
-123.3295
 20
-64.5618
 30
0.0
 10
-123.3295
 20
-64.5618
 30
0.0
 10
-123.3295
 20
-64.5618
 30
0.0
 10
-120.0084
 20
-61.7764
 30
0.0
 10
-120.0084
 20
-61.7764
 30
0.0
 10
-120.0084
 20
-61.7764
 30
0.0
 10
-118.2542
 20
-60.3051
 30
0.0
 10
-115.5659
 20
-60.6484
 30
0.0
 10
-113.3938
 20
-59.9244
 30
0.0
 10
-113.3938
 20
-59.9244
 30
0.0
 10
-109.741
 20
-58.7069
 30
0.0
 10
-106.3868
 20
-56.2244
 30
0.0
 10
-102.5459
 20
-55.9556
 30
0.0
 10
-102.5459
 20
-55.9556
 30
0.0
 10
-97.3076
 20
-55.589
 30
0.0
 10
-91.7212
 20
-55.911
 30
0.0
 10
-86.9355
 20
-58.0723
 30
0.0
 10
-86.9355
 20
-58.0723
 30
0.0
 10
-85.31
 20
-58.8064
 30
0.0
 10
-86.4063
 20
-61.6
 30
0.0
 10
-86.1417
 20
-63.3639
 30
0.0
 10
-86.1417
 20
-63.3639
 30
0.0
 10
-86.1417
 20
-63.3639
 30
0.0
 10
-78.7334
 20
-61.7764
 30
0.0
 10
-78.7334
 20
-61.7764
 30
0.0
 10
-78.7334
 20
-61.7764
 30
0.0
 10
-78.7334
 20
-61.7764
 30
0.0
 10
-83.4959
 20
-53.0452
 30
0.0
 10
-83.4959
 20
-53.0452
 30
0.0
 10
-83.4959
 20
-53.0452
 30
0.0
 10
-84.8389
 20
-50.5832
 30
0.0
 10
-77.7589
 20
-52.2208
 30
0.0
 10
-75.4261
 20
-50.664
 30
0.0
 10
-75.4261
 20
-50.664
 30
0.0
 10
-72.9751
 20
-49.0284
 30
0.0
 10
-75.0707
 20
-44.8855
 30
0.0
 10
-78.3366
 20
-46.1659
 30
0.0
 10
-78.3366
 20
-46.1659
 30
0.0
 10
-87.4893
 20
-49.7542
 30
0.0
 10
-96.0555
 20
-52.3638
 30
0.0
 10
-106.5146
 20
-52.516
 30
0.0
 10
-106.5146
 20
-52.516
 30
0.0
 10
-110.4207
 20
-52.5728
 30
0.0
 10
-113.4901
 20
-56.0191
 30
0.0
 10
-117.2303
 20
-57.1462
 30
0.0
 10
-117.2303
 20
-57.1462
 30
0.0
 10
-119.1865
 20
-57.7357
 30
0.0
 10
-121.0758
 20
-58.0336
 30
0.0
 10
-123.0293
 20
-58.1915
 30
0.0
  0
SPLINE
  5
62
330
1F
100
AcDbEntity
  8
Layer 1
 62
   250
100
AcDbSpline
210
0.0
220
0.0
230
1.0
 70
    11
 71
     3
 72
    68
 73
    64
 74
     0
 42
0.0000000001
 43
0.0000000001
 40
0.0
 40
0.0
 40
0.0
 40
0.0
 40
0.0588235294117647
 40
0.0588235294117647
 40
0.0588235294117647
 40
0.0588235294117647
 40
0.1176470588235294
 40
0.1176470588235294
 40
0.1176470588235294
 40
0.1176470588235294
 40
0.1764705882352941
 40
0.1764705882352941
 40
0.1764705882352941
 40
0.1764705882352941
 40
0.2352941176470588
 40
0.2352941176470588
 40
0.2352941176470588
 40
0.2352941176470588
 40
0.2941176470588235
 40
0.2941176470588235
 40
0.2941176470588235
 40
0.2941176470588235
 40
0.3529411764705883
 40
0.3529411764705883
 40
0.3529411764705883
 40
0.3529411764705883
 40
0.4117647058823529
 40
0.4117647058823529
 40
0.4117647058823529
 40
0.4117647058823529
 40
0.4705882352941176
 40
0.4705882352941176
 40
0.4705882352941176
 40
0.4705882352941176
 40
0.5294117647058824
 40
0.5294117647058824
 40
0.5294117647058824
 40
0.5294117647058824
 40
0.5882352941176471
 40
0.5882352941176471
 40
0.5882352941176471
 40
0.5882352941176471
 40
0.6470588235294118
 40
0.6470588235294118
 40
0.6470588235294118
 40
0.6470588235294118
 40
0.7058823529411765
 40
0.7058823529411765
 40
0.7058823529411765
 40
0.7058823529411765
 40
0.7647058823529411
 40
0.7647058823529411
 40
0.7647058823529411
 40
0.7647058823529411
 40
0.8235294117647058
 40
0.8235294117647058
 40
0.8235294117647058
 40
0.8235294117647058
 40
0.8823529411764706
 40
0.8823529411764706
 40
0.8823529411764706
 40
0.8823529411764706
 40
1.0
 40
1.0
 40
1.0
 40
1.0
 10
-138.3225
 20
-16.1115
 30
0.0
 10
-138.7681
 20
-17.1462
 30
0.0
 10
-139.2085
 20
-18.1828
 30
0.0
 10
-139.6451
 20
-19.2204
 30
0.0
 10
-139.6451
 20
-19.2204
 30
0.0
 10
-139.6451
 20
-19.2204
 30
0.0
 10
-139.2042
 20
-19.6721
 30
0.0
 10
-139.2042
 20
-19.6721
 30
0.0
 10
-139.2042
 20
-19.6721
 30
0.0
 10
-139.2042
 20
-19.6721
 30
0.0
 10
-138.9883
 20
-19.8932
 30
0.0
 10
-138.9883
 20
-19.8932
 30
0.0
 10
-138.9883
 20
-19.8932
 30
0.0
 10
-138.6397
 20
-20.1233
 30
0.0
 10
-137.9756
 20
-20.7072
 30
0.0
 10
-137.9153
 20
-20.8264
 30
0.0
 10
-137.9153
 20
-20.8264
 30
0.0
 10
-137.849
 20
-20.9575
 30
0.0
 10
-137.7881
 20
-21.0953
 30
0.0
 10
-137.7324
 20
-21.2387
 30
0.0
 10
-137.7324
 20
-21.2387
 30
0.0
 10
-137.7324
 20
-21.2387
 30
0.0
 10
-137.5506
 20
-21.4249
 30
0.0
 10
-137.5506
 20
-21.4249
 30
0.0
 10
-137.5506
 20
-21.4249
 30
0.0
 10
-137.5506
 20
-21.4249
 30
0.0
 10
-137.5322
 20
-21.4438
 30
0.0
 10
-137.5322
 20
-21.4438
 30
0.0
 10
-137.5322
 20
-21.4438
 30
0.0
 10
-137.5322
 20
-21.4438
 30
0.0
 10
-134.3915
 20
-22.2097
 30
0.0
 10
-134.3915
 20
-22.2097
 30
0.0
 10
-134.3915
 20
-22.2097
 30
0.0
 10
-134.3915
 20
-22.2097
 30
0.0
 10
-134.3751
 20
-22.3113
 30
0.0
 10
-134.3751
 20
-22.3113
 30
0.0
 10
-134.3751
 20
-22.3113
 30
0.0
 10
-134.3751
 20
-22.3113
 30
0.0
 10
-134.1442
 20
-22.3638
 30
0.0
 10
-134.1442
 20
-22.3638
 30
0.0
 10
-134.1442
 20
-22.3638
 30
0.0
 10
-134.1442
 20
-22.3638
 30
0.0
 10
-134.1365
 20
-20.0546
 30
0.0
 10
-134.1365
 20
-20.0546
 30
0.0
 10
-134.1365
 20
-20.0546
 30
0.0
 10
-134.1365
 20
-20.0546
 30
0.0
 10
-136.2614
 20
-19.492
 30
0.0
 10
-136.2614
 20
-19.492
 30
0.0
 10
-136.2614
 20
-19.492
 30
0.0
 10
-136.2614
 20
-19.492
 30
0.0
 10
-136.6117
 20
-18.662
 30
0.0
 10
-136.6117
 20
-18.662
 30
0.0
 10
-136.6117
 20
-18.662
 30
0.0
 10
-136.6117
 20
-18.662
 30
0.0
 10
-134.698
 20
-13.8521
 30
0.0
 10
-134.698
 20
-13.8521
 30
0.0
 10
-134.698
 20
-13.8521
 30
0.0
 10
-134.698
 20
-13.8521
 30
0.0
 10
-136.8238
 20
-12.6916
 30
0.0
 10
-136.8238
 20
-12.6916
 30
0.0
 10
-136.8238
 20
-12.6916
 30
0.0
 10
-136.8238
 20
-12.6916
 30
0.0
 10
-138.3225
 20
-16.1115
 30
0.0
 10
-138.3225
 20
-16.1115
 30
0.0
  0
SPLINE
  5
63
330
1F
100
AcDbEntity
  8
Layer 1
 62
   250
100
AcDbSpline
210
0.0
220
0.0
230
1.0
 70
    11
 71
     3
 72
    84
 73
    80
 74
     0
 42
0.0000000001
 43
0.0000000001
 40
0.0
 40
0.0
 40
0.0
 40
0.0
 40
0.0476190476190476
 40
0.0476190476190476
 40
0.0476190476190476
 40
0.0476190476190476
 40
0.0952380952380952
 40
0.0952380952380952
 40
0.0952380952380952
 40
0.0952380952380952
 40
0.1428571428571428
 40
0.1428571428571428
 40
0.1428571428571428
 40
0.1428571428571428
 40
0.1904761904761905
 40
0.1904761904761905
 40
0.1904761904761905
 40
0.1904761904761905
 40
0.2380952380952381
 40
0.2380952380952381
 40
0.2380952380952381
 40
0.2380952380952381
 40
0.2857142857142857
 40
0.2857142857142857
 40
0.2857142857142857
 40
0.2857142857142857
 40
0.3333333333333333
 40
0.3333333333333333
 40
0.3333333333333333
 40
0.3333333333333333
 40
0.3809523809523809
 40
0.3809523809523809
 40
0.3809523809523809
 40
0.3809523809523809
 40
0.4285714285714285
 40
0.4285714285714285
 40
0.4285714285714285
 40
0.4285714285714285
 40
0.4761904761904762
 40
0.4761904761904762
 40
0.4761904761904762
 40
0.4761904761904762
 40
0.5238095238095238
 40
0.5238095238095238
 40
0.5238095238095238
 40
0.5238095238095238
 40
0.5714285714285714
 40
0.5714285714285714
 40
0.5714285714285714
 40
0.5714285714285714
 40
0.6190476190476191
 40
0.6190476190476191
 40
0.6190476190476191
 40
0.6190476190476191
 40
0.6666666666666666
 40
0.6666666666666666
 40
0.6666666666666666
 40
0.6666666666666666
 40
0.7142857142857143
 40
0.7142857142857143
 40
0.7142857142857143
 40
0.7142857142857143
 40
0.7619047619047619
 40
0.7619047619047619
 40
0.7619047619047619
 40
0.7619047619047619
 40
0.8095238095238095
 40
0.8095238095238095
 40
0.8095238095238095
 40
0.8095238095238095
 40
0.8571428571428571
 40
0.8571428571428571
 40
0.8571428571428571
 40
0.8571428571428571
 40
0.9047619047619048
 40
0.9047619047619048
 40
0.9047619047619048
 40
0.9047619047619048
 40
1.0
 40
1.0
 40
1.0
 40
1.0
 10
-110.2555
 20
36.4201
 30
0.0
 10
-110.2555
 20
36.4201
 30
0.0
 10
-109.9504
 20
35.1453
 30
0.0
 10
-109.9504
 20
35.1453
 30
0.0
 10
-109.9504
 20
35.1453
 30
0.0
 10
-109.9504
 20
35.1453
 30
0.0
 10
-100.7222
 20
40.7308
 30
0.0
 10
-100.7222
 20
40.7308
 30
0.0
 10
-100.7222
 20
40.7308
 30
0.0
 10
-100.7222
 20
40.7308
 30
0.0
 10
-106.2785
 20
45.4933
 30
0.0
 10
-106.2785
 20
45.4933
 30
0.0
 10
-106.2785
 20
45.4933
 30
0.0
 10
-106.2785
 20
45.4933
 30
0.0
 10
-110.2472
 20
51.5787
 30
0.0
 10
-110.2472
 20
51.5787
 30
0.0
 10
-110.2472
 20
51.5787
 30
0.0
 10
-110.2472
 20
51.5787
 30
0.0
 10
-108.8519
 20
56.4623
 30
0.0
 10
-108.8519
 20
56.4623
 30
0.0
 10
-108.8519
 20
56.4623
 30
0.0
 10
-108.8519
 20
56.4623
 30
0.0
 10
-108.9917
 20
56.4002
 30
0.0
 10
-108.9917
 20
56.4002
 30
0.0
 10
-108.9917
 20
56.4002
 30
0.0
 10
-108.9917
 20
56.4002
 30
0.0
 10
-107.6481
 20
62.0848
 30
0.0
 10
-107.6481
 20
62.0848
 30
0.0
 10
-107.6481
 20
62.0848
 30
0.0
 10
-106.9735
 20
63.6806
 30
0.0
 10
-107.3991
 20
63.8981
 30
0.0
 10
-107.165
 20
64.5564
 30
0.0
 10
-107.165
 20
64.5564
 30
0.0
 10
-107.0688
 20
64.8269
 30
0.0
 10
-102.8333
 20
71.9416
 30
0.0
 10
-102.4705
 20
72.4939
 30
0.0
 10
-102.4705
 20
72.4939
 30
0.0
 10
-102.4705
 20
72.4939
 30
0.0
 10
-102.9997
 20
85.4585
 30
0.0
 10
-102.9997
 20
85.4585
 30
0.0
 10
-102.9997
 20
85.4585
 30
0.0
 10
-105.641
 20
83.6511
 30
0.0
 10
-107.4659
 20
84.1358
 30
0.0
 10
-107.7849
 20
82.5708
 30
0.0
 10
-107.7849
 20
82.5708
 30
0.0
 10
-108.1811
 20
80.6266
 30
0.0
 10
-107.4517
 20
78.3867
 30
0.0
 10
-108.3367
 20
74.346
 30
0.0
 10
-108.3367
 20
74.346
 30
0.0
 10
-109.0324
 20
71.1691
 30
0.0
 10
-108.1928
 20
73.5652
 30
0.0
 10
-109.5463
 20
70.8384
 30
0.0
 10
-109.5463
 20
70.8384
 30
0.0
 10
-110.0639
 20
69.7954
 30
0.0
 10
-113.865
 20
64.6047
 30
0.0
 10
-113.8703
 20
64.5791
 30
0.0
 10
-113.8703
 20
64.5791
 30
0.0
 10
-114.5919
 20
61.0387
 30
0.0
 10
-116.2103
 20
57.3234
 30
0.0
 10
-117.6425
 20
53.9277
 30
0.0
 10
-117.6425
 20
53.9277
 30
0.0
 10
-120.6635
 20
46.7652
 30
0.0
 10
-123.9707
 20
51.2388
 30
0.0
 10
-125.9504
 20
47.5777
 30
0.0
 10
-125.9504
 20
47.5777
 30
0.0
 10
-128.1513
 20
43.5074
 30
0.0
 10
-119.6303
 20
47.5879
 30
0.0
 10
-117.6198
 20
46.4968
 30
0.0
 10
-117.6198
 20
46.4968
 30
0.0
 10
-114.78
 20
44.9554
 30
0.0
 10
-109.7453
 20
46.1931
 30
0.0
 10
-109.5916
 20
41.5831
 30
0.0
 10
-109.5916
 20
41.5831
 30
0.0
 10
-109.5117
 20
39.1855
 30
0.0
 10
-109.4983
 20
37.7412
 30
0.0
 10
-109.3031
 20
36.9965
 30
0.0
 10
-109.3031
 20
36.9965
 30
0.0
 10
-109.3031
 20
36.9965
 30
0.0
 10
-110.2555
 20
36.4201
 30
0.0
 10
-110.2555
 20
36.4201
 30
0.0
  0
SPLINE
  5
64
330
1F
100
AcDbEntity
  8
Layer 1
 62
   250
100
AcDbSpline
210
0.0
220
0.0
230
1.0
 70
    11
 71
     3
 72
   116
 73
   112
 74
     0
 42
0.0000000001
 43
0.0000000001
 40
0.0
 40
0.0
 40
0.0
 40
0.0
 40
0.0344827586206897
 40
0.0344827586206897
 40
0.0344827586206897
 40
0.0344827586206897
 40
0.0689655172413793
 40
0.0689655172413793
 40
0.0689655172413793
 40
0.0689655172413793
 40
0.103448275862069
 40
0.103448275862069
 40
0.103448275862069
 40
0.103448275862069
 40
0.1379310344827586
 40
0.1379310344827586
 40
0.1379310344827586
 40
0.1379310344827586
 40
0.1724137931034483
 40
0.1724137931034483
 40
0.1724137931034483
 40
0.1724137931034483
 40
0.2068965517241379
 40
0.2068965517241379
 40
0.2068965517241379
 40
0.2068965517241379
 40
0.2413793103448276
 40
0.2413793103448276
 40
0.2413793103448276
 40
0.2413793103448276
 40
0.2758620689655172
 40
0.2758620689655172
 40
0.2758620689655172
 40
0.2758620689655172
 40
0.3103448275862069
 40
0.3103448275862069
 40
0.3103448275862069
 40
0.3103448275862069
 40
0.3448275862068966
 40
0.3448275862068966
 40
0.3448275862068966
 40
0.3448275862068966
 40
0.3793103448275862
 40
0.3793103448275862
 40
0.3793103448275862
 40
0.3793103448275862
 40
0.4137931034482759
 40
0.4137931034482759
 40
0.4137931034482759
 40
0.4137931034482759
 40
0.4482758620689655
 40
0.4482758620689655
 40
0.4482758620689655
 40
0.4482758620689655
 40
0.4827586206896552
 40
0.4827586206896552
 40
0.4827586206896552
 40
0.4827586206896552
 40
0.5172413793103449
 40
0.5172413793103449
 40
0.5172413793103449
 40
0.5172413793103449
 40
0.5517241379310345
 40
0.5517241379310345
 40
0.5517241379310345
 40
0.5517241379310345
 40
0.5862068965517241
 40
0.5862068965517241
 40
0.5862068965517241
 40
0.5862068965517241
 40
0.6206896551724138
 40
0.6206896551724138
 40
0.6206896551724138
 40
0.6206896551724138
 40
0.6551724137931034
 40
0.6551724137931034
 40
0.6551724137931034
 40
0.6551724137931034
 40
0.6896551724137931
 40
0.6896551724137931
 40
0.6896551724137931
 40
0.6896551724137931
 40
0.7241379310344828
 40
0.7241379310344828
 40
0.7241379310344828
 40
0.7241379310344828
 40
0.7586206896551724
 40
0.7586206896551724
 40
0.7586206896551724
 40
0.7586206896551724
 40
0.7931034482758621
 40
0.7931034482758621
 40
0.7931034482758621
 40
0.7931034482758621
 40
0.8275862068965517
 40
0.8275862068965517
 40
0.8275862068965517
 40
0.8275862068965517
 40
0.8620689655172413
 40
0.8620689655172413
 40
0.8620689655172413
 40
0.8620689655172413
 40
0.896551724137931
 40
0.896551724137931
 40
0.896551724137931
 40
0.896551724137931
 40
0.9310344827586207
 40
0.9310344827586207
 40
0.9310344827586207
 40
0.9310344827586207
 40
1.0
 40
1.0
 40
1.0
 40
1.0
 10
-67.8117
 20
93.7833
 30
0.0
 10
-67.1755
 20
93.7584
 30
0.0
 10
-65.5465
 20
93.7214
 30
0.0
 10
-64.4593
 20
93.6361
 30
0.0
 10
-64.4593
 20
93.6361
 30
0.0
 10
-65.039
 20
91.7674
 30
0.0
 10
-64.9534
 20
91.0105
 30
0.0
 10
-64.8162
 20
89.801
 30
0.0
 10
-64.8162
 20
89.801
 30
0.0
 10
-64.7233
 20
88.9824
 30
0.0
 10
-64.6105
 20
87.9881
 30
0.0
 10
-64.6105
 20
86.5022
 30
0.0
 10
-64.6105
 20
86.5022
 30
0.0
 10
-64.6105
 20
83.7977
 30
0.0
 10
-65.4259
 20
82.0253
 30
0.0
 10
-66.2263
 20
80.2856
 30
0.0
 10
-66.2263
 20
80.2856
 30
0.0
 10
-66.2263
 20
80.2856
 30
0.0
 10
-66.2282
 20
80.2865
 30
0.0
 10
-66.2282
 20
80.2865
 30
0.0
 10
-66.2282
 20
80.2865
 30
0.0
 10
-66.8492
 20
78.9363
 30
0.0
 10
-67.4597
 20
77.6082
 30
0.0
 10
-67.5258
 20
75.875
 30
0.0
 10
-67.5258
 20
75.875
 30
0.0
 10
-67.5258
 20
75.875
 30
0.0
 10
-67.5304
 20
75.7535
 30
0.0
 10
-67.5304
 20
75.7535
 30
0.0
 10
-67.5304
 20
75.7535
 30
0.0
 10
-67.5304
 20
75.7535
 30
0.0
 10
-67.5551
 20
75.6455
 30
0.0
 10
-67.5551
 20
75.6455
 30
0.0
 10
-67.5551
 20
75.6455
 30
0.0
 10
-67.5551
 20
75.6455
 30
0.0
 10
-68.8634
 20
69.916
 30
0.0
 10
-68.8634
 20
69.916
 30
0.0
 10
-68.8634
 20
69.916
 30
0.0
 10
-69.2175
 20
69.7042
 30
0.0
 10
-70.4213
 20
68.638
 30
0.0
 10
-70.9566
 20
68.5121
 30
0.0
 10
-70.9566
 20
68.5121
 30
0.0
 10
-70.9566
 20
68.5121
 30
0.0
 10
-71.2212
 20
65.8662
 30
0.0
 10
-71.2212
 20
65.8662
 30
0.0
 10
-71.2212
 20
65.8662
 30
0.0
 10
-71.2212
 20
65.8662
 30
0.0
 10
-73.2055
 20
62.6912
 30
0.0
 10
-73.2055
 20
62.6912
 30
0.0
 10
-73.2055
 20
62.6912
 30
0.0
 10
-73.2055
 20
62.6912
 30
0.0
 10
-78.4972
 20
57.6641
 30
0.0
 10
-78.4972
 20
57.6641
 30
0.0
 10
-78.4972
 20
57.6641
 30
0.0
 10
-78.4972
 20
57.6641
 30
0.0
 10
-84.5826
 20
60.5746
 30
0.0
 10
-84.5826
 20
60.5746
 30
0.0
 10
-84.5826
 20
60.5746
 30
0.0
 10
-84.5826
 20
60.5746
 30
0.0
 10
-103.4073
 20
60.7909
 30
0.0
 10
-103.4073
 20
60.7909
 30
0.0
 10
-103.4073
 20
60.7909
 30
0.0
 10
-103.4073
 20
60.7909
 30
0.0
 10
-102.7191
 20
63.1504
 30
0.0
 10
-102.7191
 20
63.1504
 30
0.0
 10
-102.7191
 20
63.1504
 30
0.0
 10
-102.7191
 20
63.1504
 30
0.0
 10
-84.4406
 20
62.6796
 30
0.0
 10
-84.4406
 20
62.6796
 30
0.0
 10
-84.4406
 20
62.6796
 30
0.0
 10
-84.4406
 20
62.6796
 30
0.0
 10
-84.1618
 20
62.6763
 30
0.0
 10
-84.1618
 20
62.6763
 30
0.0
 10
-84.1618
 20
62.6763
 30
0.0
 10
-84.1618
 20
62.6763
 30
0.0
 10
-83.9133
 20
62.5575
 30
0.0
 10
-83.9133
 20
62.5575
 30
0.0
 10
-83.9133
 20
62.5575
 30
0.0
 10
-83.9133
 20
62.5575
 30
0.0
 10
-78.8012
 20
60.6792
 30
0.0
 10
-78.8012
 20
60.6792
 30
0.0
 10
-78.8012
 20
60.6792
 30
0.0
 10
-75.6436
 20
62.5438
 30
0.0
 10
-73.7806
 20
66.0367
 30
0.0
 10
-74.1574
 20
69.8074
 30
0.0
 10
-74.1574
 20
69.8074
 30
0.0
 10
-71.9312
 20
70.31
 30
0.0
 10
-71.8783
 20
71.2388
 30
0.0
 10
-71.8496
 20
71.2466
 30
0.0
 10
-71.8496
 20
71.2466
 30
0.0
 10
-71.8496
 20
71.2466
 30
0.0
 10
-70.0104
 20
76.0885
 30
0.0
 10
-70.0104
 20
76.0885
 30
0.0
 10
-70.0104
 20
76.0885
 30
0.0
 10
-69.9037
 20
78.2568
 30
0.0
 10
-69.2035
 20
79.7787
 30
0.0
 10
-68.4919
 20
81.3257
 30
0.0
 10
-68.4919
 20
81.3257
 30
0.0
 10
-68.4919
 20
81.3257
 30
0.0
 10
-68.4919
 20
81.3306
 30
0.0
 10
-68.4919
 20
81.3306
 30
0.0
 10
-68.4919
 20
81.3306
 30
0.0
 10
-68.5736
 20
83.0095
 30
0.0
 10
-68.5493
 20
84.4943
 30
0.0
 10
-67.9042
 20
86.5022
 30
0.0
 10
-67.9042
 20
86.5022
 30
0.0
 10
-67.9042
 20
87.8875
 30
0.0
 10
-68.0063
 20
88.787
 30
0.0
 10
-68.0903
 20
89.5276
 30
0.0
 10
-68.0903
 20
89.5276
 30
0.0
 10
-68.2502
 20
90.9369
 30
0.0
 10
-68.3542
 20
91.8552
 30
0.0
 10
-67.8117
 20
93.7833
 30
0.0
  0
SPLINE
  5
65
330
1F
100
AcDbEntity
  8
Layer 1
 62
   250
100
AcDbSpline
210
0.0
220
0.0
230
1.0
 70
    11
 71
     3
 72
    88
 73
    84
 74
     0
 42
0.0000000001
 43
0.0000000001
 40
0.0
 40
0.0
 40
0.0
 40
0.0
 40
0.0454545454545455
 40
0.0454545454545455
 40
0.0454545454545455
 40
0.0454545454545455
 40
0.0909090909090909
 40
0.0909090909090909
 40
0.0909090909090909
 40
0.0909090909090909
 40
0.1363636363636364
 40
0.1363636363636364
 40
0.1363636363636364
 40
0.1363636363636364
 40
0.1818181818181818
 40
0.1818181818181818
 40
0.1818181818181818
 40
0.1818181818181818
 40
0.2272727272727273
 40
0.2272727272727273
 40
0.2272727272727273
 40
0.2272727272727273
 40
0.2727272727272727
 40
0.2727272727272727
 40
0.2727272727272727
 40
0.2727272727272727
 40
0.3181818181818182
 40
0.3181818181818182
 40
0.3181818181818182
 40
0.3181818181818182
 40
0.3636363636363636
 40
0.3636363636363636
 40
0.3636363636363636
 40
0.3636363636363636
 40
0.4090909090909091
 40
0.4090909090909091
 40
0.4090909090909091
 40
0.4090909090909091
 40
0.4545454545454545
 40
0.4545454545454545
 40
0.4545454545454545
 40
0.4545454545454545
 40
0.5
 40
0.5
 40
0.5
 40
0.5
 40
0.5454545454545454
 40
0.5454545454545454
 40
0.5454545454545454
 40
0.5454545454545454
 40
0.5909090909090909
 40
0.5909090909090909
 40
0.5909090909090909
 40
0.5909090909090909
 40
0.6363636363636364
 40
0.6363636363636364
 40
0.6363636363636364
 40
0.6363636363636364
 40
0.6818181818181818
 40
0.6818181818181818
 40
0.6818181818181818
 40
0.6818181818181818
 40
0.7272727272727273
 40
0.7272727272727273
 40
0.7272727272727273
 40
0.7272727272727273
 40
0.7727272727272727
 40
0.7727272727272727
 40
0.7727272727272727
 40
0.7727272727272727
 40
0.8181818181818182
 40
0.8181818181818182
 40
0.8181818181818182
 40
0.8181818181818182
 40
0.8636363636363636
 40
0.8636363636363636
 40
0.8636363636363636
 40
0.8636363636363636
 40
0.9090909090909091
 40
0.9090909090909091
 40
0.9090909090909091
 40
0.9090909090909091
 40
1.0
 40
1.0
 40
1.0
 40
1.0
 10
-63.1466
 20
96.6537
 30
0.0
 10
-64.0833
 20
96.712
 30
0.0
 10
-64.9035
 20
97.0438
 30
0.0
 10
-65.7146
 20
97.2961
 30
0.0
 10
-65.7146
 20
97.2961
 30
0.0
 10
-65.0068
 20
98.6554
 30
0.0
 10
-65.1637
 20
98.5791
 30
0.0
 10
-64.2418
 20
99.1293
 30
0.0
 10
-64.2418
 20
99.1293
 30
0.0
 10
-64.2418
 20
99.1293
 30
0.0
 10
-64.0627
 20
99.2366
 30
0.0
 10
-64.0627
 20
99.2366
 30
0.0
 10
-64.0627
 20
99.2366
 30
0.0
 10
-64.0627
 20
99.2366
 30
0.0
 10
-64.1159
 20
99.3828
 30
0.0
 10
-64.1159
 20
99.3828
 30
0.0
 10
-64.1159
 20
99.3828
 30
0.0
 10
-64.1159
 20
99.3828
 30
0.0
 10
-72.3953
 20
100.0925
 30
0.0
 10
-72.3953
 20
100.0925
 30
0.0
 10
-72.3953
 20
100.0925
 30
0.0
 10
-72.3953
 20
100.0925
 30
0.0
 10
-75.6392
 20
99.3439
 30
0.0
 10
-75.6392
 20
99.3439
 30
0.0
 10
-75.6392
 20
99.3439
 30
0.0
 10
-75.6392
 20
99.3439
 30
0.0
 10
-79.8531
 20
99.3097
 30
0.0
 10
-79.8531
 20
99.3097
 30
0.0
 10
-79.8531
 20
99.3097
 30
0.0
 10
-79.8531
 20
99.3097
 30
0.0
 10
-80.1363
 20
99.3097
 30
0.0
 10
-80.1363
 20
99.3097
 30
0.0
 10
-80.1363
 20
99.3097
 30
0.0
 10
-80.1363
 20
99.3097
 30
0.0
 10
-80.4097
 20
99.4464
 30
0.0
 10
-80.4097
 20
99.4464
 30
0.0
 10
-80.4097
 20
99.4464
 30
0.0
 10
-80.4097
 20
99.4464
 30
0.0
 10
-84.9824
 20
101.7328
 30
0.0
 10
-84.9824
 20
101.7328
 30
0.0
 10
-84.9824
 20
101.7328
 30
0.0
 10
-84.9824
 20
101.7328
 30
0.0
 10
-87.7779
 20
102.2588
 30
0.0
 10
-87.7779
 20
102.2588
 30
0.0
 10
-87.7779
 20
102.2588
 30
0.0
 10
-87.4942
 20
102.5885
 30
0.0
 10
-86.6653
 20
103.2892
 30
0.0
 10
-86.2393
 20
103.7039
 30
0.0
 10
-86.2393
 20
103.7039
 30
0.0
 10
-86.2393
 20
103.7039
 30
0.0
 10
-84.318
 20
103.4371
 30
0.0
 10
-84.318
 20
103.4371
 30
0.0
 10
-84.318
 20
103.4371
 30
0.0
 10
-84.318
 20
103.4371
 30
0.0
 10
-79.5555
 20
101.0558
 30
0.0
 10
-79.5555
 20
101.0558
 30
0.0
 10
-79.5555
 20
101.0558
 30
0.0
 10
-79.5555
 20
101.0558
 30
0.0
 10
-75.0576
 20
101.0558
 30
0.0
 10
-75.0576
 20
101.0558
 30
0.0
 10
-75.0576
 20
101.0558
 30
0.0
 10
-75.0576
 20
101.0558
 30
0.0
 10
-71.618
 20
101.8496
 30
0.0
 10
-71.618
 20
101.8496
 30
0.0
 10
-71.618
 20
101.8496
 30
0.0
 10
-71.618
 20
101.8496
 30
0.0
 10
-62.3576
 20
101.0558
 30
0.0
 10
-62.3576
 20
101.0558
 30
0.0
 10
-62.3576
 20
101.0558
 30
0.0
 10
-62.3576
 20
101.0558
 30
0.0
 10
-61.167
 20
98.319
 30
0.0
 10
-61.167
 20
98.319
 30
0.0
 10
-61.167
 20
98.319
 30
0.0
 10
-61.167
 20
98.319
 30
0.0
 10
-61.1144
 20
98.1202
 30
0.0
 10
-61.1144
 20
98.1202
 30
0.0
 10
-61.1144
 20
98.1202
 30
0.0
 10
-61.4833
 20
97.8565
 30
0.0
 10
-61.806
 20
97.6639
 30
0.0
 10
-62.1027
 20
97.4868
 30
0.0
 10
-62.1027
 20
97.4868
 30
0.0
 10
-62.4975
 20
97.2512
 30
0.0
 10
-62.8274
 20
97.0542
 30
0.0
 10
-63.1466
 20
96.6537
 30
0.0
  0
SPLINE
  5
66
330
1F
100
AcDbEntity
  8
Layer 1
 62
   250
100
AcDbSpline
210
0.0
220
0.0
230
1.0
 70
    11
 71
     3
 72
   228
 73
   224
 74
     0
 42
0.0000000001
 43
0.0000000001
 40
0.0
 40
0.0
 40
0.0
 40
0.0
 40
0.0175438596491228
 40
0.0175438596491228
 40
0.0175438596491228
 40
0.0175438596491228
 40
0.0350877192982456
 40
0.0350877192982456
 40
0.0350877192982456
 40
0.0350877192982456
 40
0.0526315789473684
 40
0.0526315789473684
 40
0.0526315789473684
 40
0.0526315789473684
 40
0.0701754385964912
 40
0.0701754385964912
 40
0.0701754385964912
 40
0.0701754385964912
 40
0.087719298245614
 40
0.087719298245614
 40
0.087719298245614
 40
0.087719298245614
 40
0.1052631578947368
 40
0.1052631578947368
 40
0.1052631578947368
 40
0.1052631578947368
 40
0.1228070175438596
 40
0.1228070175438596
 40
0.1228070175438596
 40
0.1228070175438596
 40
0.1403508771929824
 40
0.1403508771929824
 40
0.1403508771929824
 40
0.1403508771929824
 40
0.1578947368421053
 40
0.1578947368421053
 40
0.1578947368421053
 40
0.1578947368421053
 40
0.1754385964912281
 40
0.1754385964912281
 40
0.1754385964912281
 40
0.1754385964912281
 40
0.1929824561403509
 40
0.1929824561403509
 40
0.1929824561403509
 40
0.1929824561403509
 40
0.2105263157894737
 40
0.2105263157894737
 40
0.2105263157894737
 40
0.2105263157894737
 40
0.2280701754385965
 40
0.2280701754385965
 40
0.2280701754385965
 40
0.2280701754385965
 40
0.2456140350877193
 40
0.2456140350877193
 40
0.2456140350877193
 40
0.2456140350877193
 40
0.2631578947368421
 40
0.2631578947368421
 40
0.2631578947368421
 40
0.2631578947368421
 40
0.2807017543859649
 40
0.2807017543859649
 40
0.2807017543859649
 40
0.2807017543859649
 40
0.2982456140350877
 40
0.2982456140350877
 40
0.2982456140350877
 40
0.2982456140350877
 40
0.3157894736842105
 40
0.3157894736842105
 40
0.3157894736842105
 40
0.3157894736842105
 40
0.3333333333333333
 40
0.3333333333333333
 40
0.3333333333333333
 40
0.3333333333333333
 40
0.3508771929824561
 40
0.3508771929824561
 40
0.3508771929824561
 40
0.3508771929824561
 40
0.3684210526315789
 40
0.3684210526315789
 40
0.3684210526315789
 40
0.3684210526315789
 40
0.3859649122807017
 40
0.3859649122807017
 40
0.3859649122807017
 40
0.3859649122807017
 40
0.4035087719298245
 40
0.4035087719298245
 40
0.4035087719298245
 40
0.4035087719298245
 40
0.4210526315789473
 40
0.4210526315789473
 40
0.4210526315789473
 40
0.4210526315789473
 40
0.4385964912280702
 40
0.4385964912280702
 40
0.4385964912280702
 40
0.4385964912280702
 40
0.456140350877193
 40
0.456140350877193
 40
0.456140350877193
 40
0.456140350877193
 40
0.4736842105263158
 40
0.4736842105263158
 40
0.4736842105263158
 40
0.4736842105263158
 40
0.4912280701754386
 40
0.4912280701754386
 40
0.4912280701754386
 40
0.4912280701754386
 40
0.5087719298245614
 40
0.5087719298245614
 40
0.5087719298245614
 40
0.5087719298245614
 40
0.5263157894736842
 40
0.5263157894736842
 40
0.5263157894736842
 40
0.5263157894736842
 40
0.543859649122807
 40
0.543859649122807
 40
0.543859649122807
 40
0.543859649122807
 40
0.5614035087719298
 40
0.5614035087719298
 40
0.5614035087719298
 40
0.5614035087719298
 40
0.5789473684210527
 40
0.5789473684210527
 40
0.5789473684210527
 40
0.5789473684210527
 40
0.5964912280701754
 40
0.5964912280701754
 40
0.5964912280701754
 40
0.5964912280701754
 40
0.6140350877192983
 40
0.6140350877192983
 40
0.6140350877192983
 40
0.6140350877192983
 40
0.631578947368421
 40
0.631578947368421
 40
0.631578947368421
 40
0.631578947368421
 40
0.6491228070175439
 40
0.6491228070175439
 40
0.6491228070175439
 40
0.6491228070175439
 40
0.6666666666666666
 40
0.6666666666666666
 40
0.6666666666666666
 40
0.6666666666666666
 40
0.6842105263157895
 40
0.6842105263157895
 40
0.6842105263157895
 40
0.6842105263157895
 40
0.7017543859649122
 40
0.7017543859649122
 40
0.7017543859649122
 40
0.7017543859649122
 40
0.7192982456140351
 40
0.7192982456140351
 40
0.7192982456140351
 40
0.7192982456140351
 40
0.7368421052631579
 40
0.7368421052631579
 40
0.7368421052631579
 40
0.7368421052631579
 40
0.7543859649122807
 40
0.7543859649122807
 40
0.7543859649122807
 40
0.7543859649122807
 40
0.7719298245614035
 40
0.7719298245614035
 40
0.7719298245614035
 40
0.7719298245614035
 40
0.7894736842105263
 40
0.7894736842105263
 40
0.7894736842105263
 40
0.7894736842105263
 40
0.8070175438596491
 40
0.8070175438596491
 40
0.8070175438596491
 40
0.8070175438596491
 40
0.8245614035087719
 40
0.8245614035087719
 40
0.8245614035087719
 40
0.8245614035087719
 40
0.8421052631578947
 40
0.8421052631578947
 40
0.8421052631578947
 40
0.8421052631578947
 40
0.8596491228070176
 40
0.8596491228070176
 40
0.8596491228070176
 40
0.8596491228070176
 40
0.8771929824561403
 40
0.8771929824561403
 40
0.8771929824561403
 40
0.8771929824561403
 40
0.8947368421052632
 40
0.8947368421052632
 40
0.8947368421052632
 40
0.8947368421052632
 40
0.9122807017543859
 40
0.9122807017543859
 40
0.9122807017543859
 40
0.9122807017543859
 40
0.9298245614035088
 40
0.9298245614035088
 40
0.9298245614035088
 40
0.9298245614035088
 40
0.9473684210526315
 40
0.9473684210526315
 40
0.9473684210526315
 40
0.9473684210526315
 40
0.9649122807017544
 40
0.9649122807017544
 40
0.9649122807017544
 40
0.9649122807017544
 40
1.0
 40
1.0
 40
1.0
 40
1.0
 10
-134.2234
 20
-8.0686
 30
0.0
 10
-134.2234
 20
-8.0686
 30
0.0
 10
-127.0349
 20
-39.4103
 30
0.0
 10
-127.0349
 20
-39.4103
 30
0.0
 10
-127.0349
 20
-39.4103
 30
0.0
 10
-126.7093
 20
-39.8262
 30
0.0
 10
-126.4108
 20
-40.2694
 30
0.0
 10
-126.1344
 20
-40.7411
 30
0.0
 10
-126.1344
 20
-40.7411
 30
0.0
 10
-125.222
 20
-42.2985
 30
0.0
 10
-124.6992
 20
-43.9302
 30
0.0
 10
-124.5223
 20
-45.723
 30
0.0
 10
-124.5223
 20
-45.723
 30
0.0
 10
-124.4662
 20
-46.2922
 30
0.0
 10
-124.4491
 20
-46.8559
 30
0.0
 10
-124.436
 20
-47.4267
 30
0.0
 10
-124.436
 20
-47.4267
 30
0.0
 10
-124.4338
 20
-47.5206
 30
0.0
 10
-124.4337
 20
-47.6324
 30
0.0
 10
-124.4311
 20
-47.7456
 30
0.0
 10
-124.4311
 20
-47.7456
 30
0.0
 10
-124.2827
 20
-47.8911
 30
0.0
 10
-124.1401
 20
-48.0405
 30
0.0
 10
-124.0033
 20
-48.1937
 30
0.0
 10
-124.0033
 20
-48.1937
 30
0.0
 10
-124.0033
 20
-48.1937
 30
0.0
 10
-122.7886
 20
-45.3088
 30
0.0
 10
-122.7886
 20
-45.3088
 30
0.0
 10
-122.7886
 20
-45.3088
 30
0.0
 10
-122.7886
 20
-45.3088
 30
0.0
 10
-117.497
 20
-40.2817
 30
0.0
 10
-117.497
 20
-40.2817
 30
0.0
 10
-117.497
 20
-40.2817
 30
0.0
 10
-117.497
 20
-40.2817
 30
0.0
 10
-100.5636
 20
-33.4026
 30
0.0
 10
-100.5636
 20
-33.4026
 30
0.0
 10
-100.5636
 20
-33.4026
 30
0.0
 10
-100.5636
 20
-33.4026
 30
0.0
 10
-103.2094
 20
-19.9088
 30
0.0
 10
-103.2094
 20
-19.9088
 30
0.0
 10
-103.2094
 20
-19.9088
 30
0.0
 10
-105.5026
 20
-20.8484
 30
0.0
 10
-107.5841
 20
-22.6974
 30
0.0
 10
-110.0886
 20
-23.3484
 30
0.0
 10
-110.0886
 20
-23.3484
 30
0.0
 10
-112.5739
 20
-23.9945
 30
0.0
 10
-115.9046
 20
-18.2548
 30
0.0
 10
-116.5937
 20
-14.3293
 30
0.0
 10
-116.5937
 20
-14.3293
 30
0.0
 10
-116.8316
 20
-12.9741
 30
0.0
 10
-116.0827
 20
-11.7325
 30
0.0
 10
-116.0417
 20
-10.913
 30
0.0
 10
-116.0417
 20
-10.913
 30
0.0
 10
-116.0417
 20
-10.913
 30
0.0
 10
-92.3615
 20
-1.388
 30
0.0
 10
-92.3615
 20
-1.388
 30
0.0
 10
-92.3615
 20
-1.388
 30
0.0
 10
-92.3615
 20
-1.388
 30
0.0
 10
-89.7156
 20
0.4641
 30
0.0
 10
-89.7156
 20
0.4641
 30
0.0
 10
-89.7156
 20
0.4641
 30
0.0
 10
-89.7156
 20
0.4641
 30
0.0
 10
-86.3851
 20
5.1572
 30
0.0
 10
-86.3851
 20
5.1572
 30
0.0
 10
-86.3851
 20
5.1572
 30
0.0
 10
-86.3851
 20
5.1572
 30
0.0
 10
-89.9168
 20
6.9951
 30
0.0
 10
-89.9168
 20
6.9951
 30
0.0
 10
-89.9168
 20
6.9951
 30
0.0
 10
-91.241
 20
7.7962
 30
0.0
 10
-90.2544
 20
10.2939
 30
0.0
 10
-87.8303
 20
10.1579
 30
0.0
 10
-87.8303
 20
10.1579
 30
0.0
 10
-87.8303
 20
10.1579
 30
0.0
 10
-86.3132
 20
9.4369
 30
0.0
 10
-86.3132
 20
9.4369
 30
0.0
 10
-86.3132
 20
9.4369
 30
0.0
 10
-86.3132
 20
9.4369
 30
0.0
 10
-82.7305
 20
16.1246
 30
0.0
 10
-82.7305
 20
16.1246
 30
0.0
 10
-82.7305
 20
16.1246
 30
0.0
 10
-82.7305
 20
16.1246
 30
0.0
 10
-78.2326
 20
22.21
 30
0.0
 10
-78.2326
 20
22.21
 30
0.0
 10
-78.2326
 20
22.21
 30
0.0
 10
-77.6015
 20
23.0639
 30
0.0
 10
-78.9444
 20
24.4218
 30
0.0
 10
-78.4972
 20
25.385
 30
0.0
 10
-78.4972
 20
25.385
 30
0.0
 10
-77.7334
 20
27.0285
 30
0.0
 10
-76.5083
 20
28.5869
 30
0.0
 10
-74.9537
 20
29.5243
 30
0.0
 10
-74.9537
 20
29.5243
 30
0.0
 10
-74.9537
 20
29.5243
 30
0.0
 10
-76.1896
 20
32.2742
 30
0.0
 10
-76.1896
 20
32.2742
 30
0.0
 10
-76.1896
 20
32.2742
 30
0.0
 10
-75.8478
 20
32.4601
 30
0.0
 10
-75.4872
 20
32.6083
 30
0.0
 10
-75.1139
 20
32.7194
 30
0.0
 10
-75.1139
 20
32.7194
 30
0.0
 10
-74.6539
 20
32.8562
 30
0.0
 10
-74.2057
 20
32.9299
 30
0.0
 10
-73.7581
 20
32.963
 30
0.0
 10
-73.7581
 20
32.963
 30
0.0
 10
-73.7581
 20
32.963
 30
0.0
 10
-74.3477
 20
42.3958
 30
0.0
 10
-74.3477
 20
42.3958
 30
0.0
 10
-74.3477
 20
42.3958
 30
0.0
 10
-74.3975
 20
43.1926
 30
0.0
 10
-74.1895
 20
43.975
 30
0.0
 10
-73.7317
 20
44.6316
 30
0.0
 10
-73.7317
 20
44.6316
 30
0.0
 10
-72.8815
 20
45.8512
 30
0.0
 10
-71.7276
 20
46.1307
 30
0.0
 10
-70.4269
 20
46.2757
 30
0.0
 10
-70.4269
 20
46.2757
 30
0.0
 10
-70.3287
 20
46.6584
 30
0.0
 10
-70.2667
 20
47.0783
 30
0.0
 10
-70.2188
 20
47.4825
 30
0.0
 10
-70.2188
 20
47.4825
 30
0.0
 10
-70.2188
 20
47.4825
 30
0.0
 10
-67.4692
 20
45.7561
 30
0.0
 10
-67.4692
 20
45.7561
 30
0.0
 10
-67.4692
 20
45.7561
 30
0.0
 10
-67.161
 20
47.1265
 30
0.0
 10
-67.1542
 20
48.6171
 30
0.0
 10
-66.8555
 20
49.9912
 30
0.0
 10
-66.8555
 20
49.9912
 30
0.0
 10
-66.1239
 20
53.3565
 30
0.0
 10
-67.1617
 20
56.9688
 30
0.0
 10
-66.3264
 20
60.31
 30
0.0
 10
-66.3264
 20
60.31
 30
0.0
 10
-65.542
 20
63.4478
 30
0.0
 10
-63.0705
 20
65.9581
 30
0.0
 10
-62.093
 20
69.0412
 30
0.0
 10
-62.093
 20
69.0412
 30
0.0
 10
-61.8653
 20
69.7595
 30
0.0
 10
-62.1333
 20
71.1579
 30
0.0
 10
-62.8868
 20
71.1579
 30
0.0
 10
-62.8868
 20
71.1579
 30
0.0
 10
-63.5123
 20
71.1579
 30
0.0
 10
-64.6087
 20
70.9927
 30
0.0
 10
-65.2813
 20
70.8808
 30
0.0
 10
-65.2813
 20
70.8808
 30
0.0
 10
-65.8361
 20
70.7886
 30
0.0
 10
-65.7964
 20
70.914
 30
0.0
 10
-66.0217
 20
70.4773
 30
0.0
 10
-66.0217
 20
70.4773
 30
0.0
 10
-66.5908
 20
69.3749
 30
0.0
 10
-67.1574
 20
68.2687
 30
0.0
 10
-67.7324
 20
67.1547
 30
0.0
 10
-67.7324
 20
67.1547
 30
0.0
 10
-68.0397
 20
67.0576
 30
0.0
 10
-68.346
 20
66.9591
 30
0.0
 10
-68.6497
 20
66.862
 30
0.0
 10
-68.6497
 20
66.862
 30
0.0
 10
-68.6497
 20
66.862
 30
0.0
 10
-68.5559
 20
65.9244
 30
0.0
 10
-68.5559
 20
65.9244
 30
0.0
 10
-68.5559
 20
65.9244
 30
0.0
 10
-68.5559
 20
65.9244
 30
0.0
 10
-70.6914
 20
60.9417
 30
0.0
 10
-70.6914
 20
60.9417
 30
0.0
 10
-70.6914
 20
60.9417
 30
0.0
 10
-70.6914
 20
60.9417
 30
0.0
 10
-77.9284
 20
54.0666
 30
0.0
 10
-77.9284
 20
54.0666
 30
0.0
 10
-77.9284
 20
54.0666
 30
0.0
 10
-77.9284
 20
54.0666
 30
0.0
 10
-85.2794
 20
57.5824
 30
0.0
 10
-85.2794
 20
57.5824
 30
0.0
 10
-85.2794
 20
57.5824
 30
0.0
 10
-85.2794
 20
57.5824
 30
0.0
 10
-105.346
 20
57.813
 30
0.0
 10
-105.346
 20
57.813
 30
0.0
 10
-105.346
 20
57.813
 30
0.0
 10
-105.346
 20
57.813
 30
0.0
 10
-106.9865
 20
52.0708
 30
0.0
 10
-106.9865
 20
52.0708
 30
0.0
 10
-106.9865
 20
52.0708
 30
0.0
 10
-106.9865
 20
52.0708
 30
0.0
 10
-104.0002
 20
47.4917
 30
0.0
 10
-104.0002
 20
47.4917
 30
0.0
 10
-104.0002
 20
47.4917
 30
0.0
 10
-104.0002
 20
47.4917
 30
0.0
 10
-95.6224
 20
40.3108
 30
0.0
 10
-95.6224
 20
40.3108
 30
0.0
 10
-95.6224
 20
40.3108
 30
0.0
 10
-95.6224
 20
40.3108
 30
0.0
 10
-109.8341
 20
31.709
 30
0.0
 10
-109.8341
 20
31.709
 30
0.0
 10
-109.8341
 20
31.709
 30
0.0
 10
-109.8341
 20
31.709
 30
0.0
 10
-115.3567
 20
31.2842
 30
0.0
 10
-115.3567
 20
31.2842
 30
0.0
 10
-115.3567
 20
31.2842
 30
0.0
 10
-115.3567
 20
31.2842
 30
0.0
 10
-115.6108
 20
30.4129
 30
0.0
 10
-115.6108
 20
30.4129
 30
0.0
 10
-115.6108
 20
30.4129
 30
0.0
 10
-115.6108
 20
30.4129
 30
0.0
 10
-118.0405
 20
32.7968
 30
0.0
 10
-118.0405
 20
32.7968
 30
0.0
 10
-118.0405
 20
32.7968
 30
0.0
 10
-118.0405
 20
32.7968
 30
0.0
 10
-119.5079
 20
27.7663
 30
0.0
 10
-119.5079
 20
27.7663
 30
0.0
 10
-119.5079
 20
27.7663
 30
0.0
 10
-120.3755
 20
24.7921
 30
0.0
 10
-118.0981
 20
21.5421
 30
0.0
 10
-118.7141
 20
18.5059
 30
0.0
 10
-118.7141
 20
18.5059
 30
0.0
 10
-119.3807
 20
15.2204
 30
0.0
 10
-121.464
 20
12.3706
 30
0.0
 10
-123.2121
 20
9.51
 30
0.0
 10
-123.2121
 20
9.51
 30
0.0
 10
-125.3558
 20
6.002
 30
0.0
 10
-128.3621
 20
3.0512
 30
0.0
 10
-130.3558
 20
-0.5441
 30
0.0
 10
-130.3558
 20
-0.5441
 30
0.0
 10
-131.7234
 20
-3.0103
 30
0.0
 10
-133.004
 20
-5.5241
 30
0.0
 10
-134.2234
 20
-8.0686
 30
0.0
  0
SPLINE
  5
67
330
1F
100
AcDbEntity
  8
Layer 1
 62
   250
100
AcDbSpline
210
0.0
220
0.0
230
1.0
 70
    11
 71
     3
 72
  1204
 73
  1200
 74
     0
 42
0.0000000001
 43
0.0000000001
 40
0.0
 40
0.0
 40
0.0
 40
0.0
 40
0.0033222591362126
 40
0.0033222591362126
 40
0.0033222591362126
 40
0.0033222591362126
 40
0.0066445182724252
 40
0.0066445182724252
 40
0.0066445182724252
 40
0.0066445182724252
 40
0.0099667774086379
 40
0.0099667774086379
 40
0.0099667774086379
 40
0.0099667774086379
 40
0.0132890365448505
 40
0.0132890365448505
 40
0.0132890365448505
 40
0.0132890365448505
 40
0.0166112956810631
 40
0.0166112956810631
 40
0.0166112956810631
 40
0.0166112956810631
 40
0.0199335548172757
 40
0.0199335548172757
 40
0.0199335548172757
 40
0.0199335548172757
 40
0.0232558139534884
 40
0.0232558139534884
 40
0.0232558139534884
 40
0.0232558139534884
 40
0.026578073089701
 40
0.026578073089701
 40
0.026578073089701
 40
0.026578073089701
 40
0.0299003322259136
 40
0.0299003322259136
 40
0.0299003322259136
 40
0.0299003322259136
 40
0.0332225913621262
 40
0.0332225913621262
 40
0.0332225913621262
 40
0.0332225913621262
 40
0.0365448504983389
 40
0.0365448504983389
 40
0.0365448504983389
 40
0.0365448504983389
 40
0.0398671096345515
 40
0.0398671096345515
 40
0.0398671096345515
 40
0.0398671096345515
 40
0.0431893687707641
 40
0.0431893687707641
 40
0.0431893687707641
 40
0.0431893687707641
 40
0.0465116279069767
 40
0.0465116279069767
 40
0.0465116279069767
 40
0.0465116279069767
 40
0.0498338870431894
 40
0.0498338870431894
 40
0.0498338870431894
 40
0.0498338870431894
 40
0.053156146179402
 40
0.053156146179402
 40
0.053156146179402
 40
0.053156146179402
 40
0.0564784053156146
 40
0.0564784053156146
 40
0.0564784053156146
 40
0.0564784053156146
 40
0.0598006644518272
 40
0.0598006644518272
 40
0.0598006644518272
 40
0.0598006644518272
 40
0.0631229235880399
 40
0.0631229235880399
 40
0.0631229235880399
 40
0.0631229235880399
 40
0.0664451827242525
 40
0.0664451827242525
 40
0.0664451827242525
 40
0.0664451827242525
 40
0.0697674418604651
 40
0.0697674418604651
 40
0.0697674418604651
 40
0.0697674418604651
 40
0.0730897009966777
 40
0.0730897009966777
 40
0.0730897009966777
 40
0.0730897009966777
 40
0.0764119601328904
 40
0.0764119601328904
 40
0.0764119601328904
 40
0.0764119601328904
 40
0.079734219269103
 40
0.079734219269103
 40
0.079734219269103
 40
0.079734219269103
 40
0.0830564784053156
 40
0.0830564784053156
 40
0.0830564784053156
 40
0.0830564784053156
 40
0.0863787375415282
 40
0.0863787375415282
 40
0.0863787375415282
 40
0.0863787375415282
 40
0.0897009966777409
 40
0.0897009966777409
 40
0.0897009966777409
 40
0.0897009966777409
 40
0.0930232558139535
 40
0.0930232558139535
 40
0.0930232558139535
 40
0.0930232558139535
 40
0.0963455149501661
 40
0.0963455149501661
 40
0.0963455149501661
 40
0.0963455149501661
 40
0.0996677740863787
 40
0.0996677740863787
 40
0.0996677740863787
 40
0.0996677740863787
 40
0.1029900332225914
 40
0.1029900332225914
 40
0.1029900332225914
 40
0.1029900332225914
 40
0.106312292358804
 40
0.106312292358804
 40
0.106312292358804
 40
0.106312292358804
 40
0.1096345514950166
 40
0.1096345514950166
 40
0.1096345514950166
 40
0.1096345514950166
 40
0.1129568106312292
 40
0.1129568106312292
 40
0.1129568106312292
 40
0.1129568106312292
 40
0.1162790697674419
 40
0.1162790697674419
 40
0.1162790697674419
 40
0.1162790697674419
 40
0.1196013289036545
 40
0.1196013289036545
 40
0.1196013289036545
 40
0.1196013289036545
 40
0.1229235880398671
 40
0.1229235880398671
 40
0.1229235880398671
 40
0.1229235880398671
 40
0.1262458471760797
 40
0.1262458471760797
 40
0.1262458471760797
 40
0.1262458471760797
 40
0.1295681063122923
 40
0.1295681063122923
 40
0.1295681063122923
 40
0.1295681063122923
 40
0.132890365448505
 40
0.132890365448505
 40
0.132890365448505
 40
0.132890365448505
 40
0.1362126245847176
 40
0.1362126245847176
 40
0.1362126245847176
 40
0.1362126245847176
 40
0.1395348837209302
 40
0.1395348837209302
 40
0.1395348837209302
 40
0.1395348837209302
 40
0.1428571428571428
 40
0.1428571428571428
 40
0.1428571428571428
 40
0.1428571428571428
 40
0.1461794019933555
 40
0.1461794019933555
 40
0.1461794019933555
 40
0.1461794019933555
 40
0.1495016611295681
 40
0.1495016611295681
 40
0.1495016611295681
 40
0.1495016611295681
 40
0.1528239202657807
 40
0.1528239202657807
 40
0.1528239202657807
 40
0.1528239202657807
 40
0.1561461794019934
 40
0.1561461794019934
 40
0.1561461794019934
 40
0.1561461794019934
 40
0.159468438538206
 40
0.159468438538206
 40
0.159468438538206
 40
0.159468438538206
 40
0.1627906976744186
 40
0.1627906976744186
 40
0.1627906976744186
 40
0.1627906976744186
 40
0.1661129568106312
 40
0.1661129568106312
 40
0.1661129568106312
 40
0.1661129568106312
 40
0.1694352159468439
 40
0.1694352159468439
 40
0.1694352159468439
 40
0.1694352159468439
 40
0.1727574750830565
 40
0.1727574750830565
 40
0.1727574750830565
 40
0.1727574750830565
 40
0.1760797342192691
 40
0.1760797342192691
 40
0.1760797342192691
 40
0.1760797342192691
 40
0.1794019933554817
 40
0.1794019933554817
 40
0.1794019933554817
 40
0.1794019933554817
 40
0.1827242524916944
 40
0.1827242524916944
 40
0.1827242524916944
 40
0.1827242524916944
 40
0.186046511627907
 40
0.186046511627907
 40
0.186046511627907
 40
0.186046511627907
 40
0.1893687707641196
 40
0.1893687707641196
 40
0.1893687707641196
 40
0.1893687707641196
 40
0.1926910299003322
 40
0.1926910299003322
 40
0.1926910299003322
 40
0.1926910299003322
 40
0.1960132890365449
 40
0.1960132890365449
 40
0.1960132890365449
 40
0.1960132890365449
 40
0.1993355481727575
 40
0.1993355481727575
 40
0.1993355481727575
 40
0.1993355481727575
 40
0.2026578073089701
 40
0.2026578073089701
 40
0.2026578073089701
 40
0.2026578073089701
 40
0.2059800664451827
 40
0.2059800664451827
 40
0.2059800664451827
 40
0.2059800664451827
 40
0.2093023255813954
 40
0.2093023255813954
 40
0.2093023255813954
 40
0.2093023255813954
 40
0.212624584717608
 40
0.212624584717608
 40
0.212624584717608
 40
0.212624584717608
 40
0.2159468438538206
 40
0.2159468438538206
 40
0.2159468438538206
 40
0.2159468438538206
 40
0.2192691029900332
 40
0.2192691029900332
 40
0.2192691029900332
 40
0.2192691029900332
 40
0.2225913621262458
 40
0.2225913621262458
 40
0.2225913621262458
 40
0.2225913621262458
 40
0.2259136212624585
 40
0.2259136212624585
 40
0.2259136212624585
 40
0.2259136212624585
 40
0.2292358803986711
 40
0.2292358803986711
 40
0.2292358803986711
 40
0.2292358803986711
 40
0.2325581395348837
 40
0.2325581395348837
 40
0.2325581395348837
 40
0.2325581395348837
 40
0.2358803986710963
 40
0.2358803986710963
 40
0.2358803986710963
 40
0.2358803986710963
 40
0.239202657807309
 40
0.239202657807309
 40
0.239202657807309
 40
0.239202657807309
 40
0.2425249169435216
 40
0.2425249169435216
 40
0.2425249169435216
 40
0.2425249169435216
 40
0.2458471760797342
 40
0.2458471760797342
 40
0.2458471760797342
 40
0.2458471760797342
 40
0.2491694352159468
 40
0.2491694352159468
 40
0.2491694352159468
 40
0.2491694352159468
 40
0.2524916943521595
 40
0.2524916943521595
 40
0.2524916943521595
 40
0.2524916943521595
 40
0.2558139534883721
 40
0.2558139534883721
 40
0.2558139534883721
 40
0.2558139534883721
 40
0.2591362126245847
 40
0.2591362126245847
 40
0.2591362126245847
 40
0.2591362126245847
 40
0.2624584717607973
 40
0.2624584717607973
 40
0.2624584717607973
 40
0.2624584717607973
 40
0.26578073089701
 40
0.26578073089701
 40
0.26578073089701
 40
0.26578073089701
 40
0.2691029900332226
 40
0.2691029900332226
 40
0.2691029900332226
 40
0.2691029900332226
 40
0.2724252491694352
 40
0.2724252491694352
 40
0.2724252491694352
 40
0.2724252491694352
 40
0.2757475083056478
 40
0.2757475083056478
 40
0.2757475083056478
 40
0.2757475083056478
 40
0.2790697674418605
 40
0.2790697674418605
 40
0.2790697674418605
 40
0.2790697674418605
 40
0.2823920265780731
 40
0.2823920265780731
 40
0.2823920265780731
 40
0.2823920265780731
 40
0.2857142857142857
 40
0.2857142857142857
 40
0.2857142857142857
 40
0.2857142857142857
 40
0.2890365448504983
 40
0.2890365448504983
 40
0.2890365448504983
 40
0.2890365448504983
 40
0.292358803986711
 40
0.292358803986711
 40
0.292358803986711
 40
0.292358803986711
 40
0.2956810631229236
 40
0.2956810631229236
 40
0.2956810631229236
 40
0.2956810631229236
 40
0.2990033222591362
 40
0.2990033222591362
 40
0.2990033222591362
 40
0.2990033222591362
 40
0.3023255813953488
 40
0.3023255813953488
 40
0.3023255813953488
 40
0.3023255813953488
 40
0.3056478405315615
 40
0.3056478405315615
 40
0.3056478405315615
 40
0.3056478405315615
 40
0.3089700996677741
 40
0.3089700996677741
 40
0.3089700996677741
 40
0.3089700996677741
 40
0.3122923588039867
 40
0.3122923588039867
 40
0.3122923588039867
 40
0.3122923588039867
 40
0.3156146179401993
 40
0.3156146179401993
 40
0.3156146179401993
 40
0.3156146179401993
 40
0.3189368770764119
 40
0.3189368770764119
 40
0.3189368770764119
 40
0.3189368770764119
 40
0.3222591362126246
 40
0.3222591362126246
 40
0.3222591362126246
 40
0.3222591362126246
 40
0.3255813953488372
 40
0.3255813953488372
 40
0.3255813953488372
 40
0.3255813953488372
 40
0.3289036544850498
 40
0.3289036544850498
 40
0.3289036544850498
 40
0.3289036544850498
 40
0.3322259136212625
 40
0.3322259136212625
 40
0.3322259136212625
 40
0.3322259136212625
 40
0.3355481727574751
 40
0.3355481727574751
 40
0.3355481727574751
 40
0.3355481727574751
 40
0.3388704318936877
 40
0.3388704318936877
 40
0.3388704318936877
 40
0.3388704318936877
 40
0.3421926910299004
 40
0.3421926910299004
 40
0.3421926910299004
 40
0.3421926910299004
 40
0.3455149501661129
 40
0.3455149501661129
 40
0.3455149501661129
 40
0.3455149501661129
 40
0.3488372093023256
 40
0.3488372093023256
 40
0.3488372093023256
 40
0.3488372093023256
 40
0.3521594684385382
 40
0.3521594684385382
 40
0.3521594684385382
 40
0.3521594684385382
 40
0.3554817275747508
 40
0.3554817275747508
 40
0.3554817275747508
 40
0.3554817275747508
 40
0.3588039867109635
 40
0.3588039867109635
 40
0.3588039867109635
 40
0.3588039867109635
 40
0.3621262458471761
 40
0.3621262458471761
 40
0.3621262458471761
 40
0.3621262458471761
 40
0.3654485049833887
 40
0.3654485049833887
 40
0.3654485049833887
 40
0.3654485049833887
 40
0.3687707641196013
 40
0.3687707641196013
 40
0.3687707641196013
 40
0.3687707641196013
 40
0.3720930232558139
 40
0.3720930232558139
 40
0.3720930232558139
 40
0.3720930232558139
 40
0.3754152823920266
 40
0.3754152823920266
 40
0.3754152823920266
 40
0.3754152823920266
 40
0.3787375415282392
 40
0.3787375415282392
 40
0.3787375415282392
 40
0.3787375415282392
 40
0.3820598006644518
 40
0.3820598006644518
 40
0.3820598006644518
 40
0.3820598006644518
 40
0.3853820598006645
 40
0.3853820598006645
 40
0.3853820598006645
 40
0.3853820598006645
 40
0.3887043189368771
 40
0.3887043189368771
 40
0.3887043189368771
 40
0.3887043189368771
 40
0.3920265780730897
 40
0.3920265780730897
 40
0.3920265780730897
 40
0.3920265780730897
 40
0.3953488372093023
 40
0.3953488372093023
 40
0.3953488372093023
 40
0.3953488372093023
 40
0.398671096345515
 40
0.398671096345515
 40
0.398671096345515
 40
0.398671096345515
 40
0.4019933554817276
 40
0.4019933554817276
 40
0.4019933554817276
 40
0.4019933554817276
 40
0.4053156146179402
 40
0.4053156146179402
 40
0.4053156146179402
 40
0.4053156146179402
 40
0.4086378737541528
 40
0.4086378737541528
 40
0.4086378737541528
 40
0.4086378737541528
 40
0.4119601328903654
 40
0.4119601328903654
 40
0.4119601328903654
 40
0.4119601328903654
 40
0.4152823920265781
 40
0.4152823920265781
 40
0.4152823920265781
 40
0.4152823920265781
 40
0.4186046511627907
 40
0.4186046511627907
 40
0.4186046511627907
 40
0.4186046511627907
 40
0.4219269102990033
 40
0.4219269102990033
 40
0.4219269102990033
 40
0.4219269102990033
 40
0.425249169435216
 40
0.425249169435216
 40
0.425249169435216
 40
0.425249169435216
 40
0.4285714285714285
 40
0.4285714285714285
 40
0.4285714285714285
 40
0.4285714285714285
 40
0.4318936877076412
 40
0.4318936877076412
 40
0.4318936877076412
 40
0.4318936877076412
 40
0.4352159468438538
 40
0.4352159468438538
 40
0.4352159468438538
 40
0.4352159468438538
 40
0.4385382059800664
 40
0.4385382059800664
 40
0.4385382059800664
 40
0.4385382059800664
 40
0.4418604651162791
 40
0.4418604651162791
 40
0.4418604651162791
 40
0.4418604651162791
 40
0.4451827242524917
 40
0.4451827242524917
 40
0.4451827242524917
 40
0.4451827242524917
 40
0.4485049833887043
 40
0.4485049833887043
 40
0.4485049833887043
 40
0.4485049833887043
 40
0.451827242524917
 40
0.451827242524917
 40
0.451827242524917
 40
0.451827242524917
 40
0.4551495016611296
 40
0.4551495016611296
 40
0.4551495016611296
 40
0.4551495016611296
 40
0.4584717607973422
 40
0.4584717607973422
 40
0.4584717607973422
 40
0.4584717607973422
 40
0.4617940199335548
 40
0.4617940199335548
 40
0.4617940199335548
 40
0.4617940199335548
 40
0.4651162790697674
 40
0.4651162790697674
 40
0.4651162790697674
 40
0.4651162790697674
 40
0.4684385382059801
 40
0.4684385382059801
 40
0.4684385382059801
 40
0.4684385382059801
 40
0.4717607973421927
 40
0.4717607973421927
 40
0.4717607973421927
 40
0.4717607973421927
 40
0.4750830564784053
 40
0.4750830564784053
 40
0.4750830564784053
 40
0.4750830564784053
 40
0.478405315614618
 40
0.478405315614618
 40
0.478405315614618
 40
0.478405315614618
 40
0.4817275747508306
 40
0.4817275747508306
 40
0.4817275747508306
 40
0.4817275747508306
 40
0.4850498338870432
 40
0.4850498338870432
 40
0.4850498338870432
 40
0.4850498338870432
 40
0.4883720930232558
 40
0.4883720930232558
 40
0.4883720930232558
 40
0.4883720930232558
 40
0.4916943521594684
 40
0.4916943521594684
 40
0.4916943521594684
 40
0.4916943521594684
 40
0.4950166112956811
 40
0.4950166112956811
 40
0.4950166112956811
 40
0.4950166112956811
 40
0.4983388704318937
 40
0.4983388704318937
 40
0.4983388704318937
 40
0.4983388704318937
 40
0.5016611295681063
 40
0.5016611295681063
 40
0.5016611295681063
 40
0.5016611295681063
 40
0.5049833887043189
 40
0.5049833887043189
 40
0.5049833887043189
 40
0.5049833887043189
 40
0.5083056478405316
 40
0.5083056478405316
 40
0.5083056478405316
 40
0.5083056478405316
 40
0.5116279069767442
 40
0.5116279069767442
 40
0.5116279069767442
 40
0.5116279069767442
 40
0.5149501661129569
 40
0.5149501661129569
 40
0.5149501661129569
 40
0.5149501661129569
 40
0.5182724252491694
 40
0.5182724252491694
 40
0.5182724252491694
 40
0.5182724252491694
 40
0.521594684385382
 40
0.521594684385382
 40
0.521594684385382
 40
0.521594684385382
 40
0.5249169435215947
 40
0.5249169435215947
 40
0.5249169435215947
 40
0.5249169435215947
 40
0.5282392026578073
 40
0.5282392026578073
 40
0.5282392026578073
 40
0.5282392026578073
 40
0.53156146179402
 40
0.53156146179402
 40
0.53156146179402
 40
0.53156146179402
 40
0.5348837209302325
 40
0.5348837209302325
 40
0.5348837209302325
 40
0.5348837209302325
 40
0.5382059800664452
 40
0.5382059800664452
 40
0.5382059800664452
 40
0.5382059800664452
 40
0.5415282392026578
 40
0.5415282392026578
 40
0.5415282392026578
 40
0.5415282392026578
 40
0.5448504983388704
 40
0.5448504983388704
 40
0.5448504983388704
 40
0.5448504983388704
 40
0.5481727574750831
 40
0.5481727574750831
 40
0.5481727574750831
 40
0.5481727574750831
 40
0.5514950166112956
 40
0.5514950166112956
 40
0.5514950166112956
 40
0.5514950166112956
 40
0.5548172757475083
 40
0.5548172757475083
 40
0.5548172757475083
 40
0.5548172757475083
 40
0.5581395348837209
 40
0.5581395348837209
 40
0.5581395348837209
 40
0.5581395348837209
 40
0.5614617940199336
 40
0.5614617940199336
 40
0.5614617940199336
 40
0.5614617940199336
 40
0.5647840531561462
 40
0.5647840531561462
 40
0.5647840531561462
 40
0.5647840531561462
 40
0.5681063122923588
 40
0.5681063122923588
 40
0.5681063122923588
 40
0.5681063122923588
 40
0.5714285714285714
 40
0.5714285714285714
 40
0.5714285714285714
 40
0.5714285714285714
 40
0.574750830564784
 40
0.574750830564784
 40
0.574750830564784
 40
0.574750830564784
 40
0.5780730897009967
 40
0.5780730897009967
 40
0.5780730897009967
 40
0.5780730897009967
 40
0.5813953488372093
 40
0.5813953488372093
 40
0.5813953488372093
 40
0.5813953488372093
 40
0.584717607973422
 40
0.584717607973422
 40
0.584717607973422
 40
0.584717607973422
 40
0.5880398671096345
 40
0.5880398671096345
 40
0.5880398671096345
 40
0.5880398671096345
 40
0.5913621262458472
 40
0.5913621262458472
 40
0.5913621262458472
 40
0.5913621262458472
 40
0.5946843853820598
 40
0.5946843853820598
 40
0.5946843853820598
 40
0.5946843853820598
 40
0.5980066445182725
 40
0.5980066445182725
 40
0.5980066445182725
 40
0.5980066445182725
 40
0.6013289036544851
 40
0.6013289036544851
 40
0.6013289036544851
 40
0.6013289036544851
 40
0.6046511627906976
 40
0.6046511627906976
 40
0.6046511627906976
 40
0.6046511627906976
 40
0.6079734219269103
 40
0.6079734219269103
 40
0.6079734219269103
 40
0.6079734219269103
 40
0.6112956810631229
 40
0.6112956810631229
 40
0.6112956810631229
 40
0.6112956810631229
 40
0.6146179401993356
 40
0.6146179401993356
 40
0.6146179401993356
 40
0.6146179401993356
 40
0.6179401993355482
 40
0.6179401993355482
 40
0.6179401993355482
 40
0.6179401993355482
 40
0.6212624584717608
 40
0.6212624584717608
 40
0.6212624584717608
 40
0.6212624584717608
 40
0.6245847176079734
 40
0.6245847176079734
 40
0.6245847176079734
 40
0.6245847176079734
 40
0.627906976744186
 40
0.627906976744186
 40
0.627906976744186
 40
0.627906976744186
 40
0.6312292358803987
 40
0.6312292358803987
 40
0.6312292358803987
 40
0.6312292358803987
 40
0.6345514950166113
 40
0.6345514950166113
 40
0.6345514950166113
 40
0.6345514950166113
 40
0.6378737541528239
 40
0.6378737541528239
 40
0.6378737541528239
 40
0.6378737541528239
 40
0.6411960132890365
 40
0.6411960132890365
 40
0.6411960132890365
 40
0.6411960132890365
 40
0.6445182724252492
 40
0.6445182724252492
 40
0.6445182724252492
 40
0.6445182724252492
 40
0.6478405315614618
 40
0.6478405315614618
 40
0.6478405315614618
 40
0.6478405315614618
 40
0.6511627906976745
 40
0.6511627906976745
 40
0.6511627906976745
 40
0.6511627906976745
 40
0.654485049833887
 40
0.654485049833887
 40
0.654485049833887
 40
0.654485049833887
 40
0.6578073089700996
 40
0.6578073089700996
 40
0.6578073089700996
 40
0.6578073089700996
 40
0.6611295681063123
 40
0.6611295681063123
 40
0.6611295681063123
 40
0.6611295681063123
 40
0.6644518272425249
 40
0.6644518272425249
 40
0.6644518272425249
 40
0.6644518272425249
 40
0.6677740863787376
 40
0.6677740863787376
 40
0.6677740863787376
 40
0.6677740863787376
 40
0.6710963455149501
 40
0.6710963455149501
 40
0.6710963455149501
 40
0.6710963455149501
 40
0.6744186046511628
 40
0.6744186046511628
 40
0.6744186046511628
 40
0.6744186046511628
 40
0.6777408637873754
 40
0.6777408637873754
 40
0.6777408637873754
 40
0.6777408637873754
 40
0.6810631229235881
 40
0.6810631229235881
 40
0.6810631229235881
 40
0.6810631229235881
 40
0.6843853820598007
 40
0.6843853820598007
 40
0.6843853820598007
 40
0.6843853820598007
 40
0.6877076411960132
 40
0.6877076411960132
 40
0.6877076411960132
 40
0.6877076411960132
 40
0.6910299003322259
 40
0.6910299003322259
 40
0.6910299003322259
 40
0.6910299003322259
 40
0.6943521594684385
 40
0.6943521594684385
 40
0.6943521594684385
 40
0.6943521594684385
 40
0.6976744186046512
 40
0.6976744186046512
 40
0.6976744186046512
 40
0.6976744186046512
 40
0.7009966777408638
 40
0.7009966777408638
 40
0.7009966777408638
 40
0.7009966777408638
 40
0.7043189368770764
 40
0.7043189368770764
 40
0.7043189368770764
 40
0.7043189368770764
 40
0.707641196013289
 40
0.707641196013289
 40
0.707641196013289
 40
0.707641196013289
 40
0.7109634551495017
 40
0.7109634551495017
 40
0.7109634551495017
 40
0.7109634551495017
 40
0.7142857142857143
 40
0.7142857142857143
 40
0.7142857142857143
 40
0.7142857142857143
 40
0.717607973421927
 40
0.717607973421927
 40
0.717607973421927
 40
0.717607973421927
 40
0.7209302325581395
 40
0.7209302325581395
 40
0.7209302325581395
 40
0.7209302325581395
 40
0.7242524916943521
 40
0.7242524916943521
 40
0.7242524916943521
 40
0.7242524916943521
 40
0.7275747508305648
 40
0.7275747508305648
 40
0.7275747508305648
 40
0.7275747508305648
 40
0.7308970099667774
 40
0.7308970099667774
 40
0.7308970099667774
 40
0.7308970099667774
 40
0.7342192691029901
 40
0.7342192691029901
 40
0.7342192691029901
 40
0.7342192691029901
 40
0.7375415282392026
 40
0.7375415282392026
 40
0.7375415282392026
 40
0.7375415282392026
 40
0.7408637873754153
 40
0.7408637873754153
 40
0.7408637873754153
 40
0.7408637873754153
 40
0.7441860465116279
 40
0.7441860465116279
 40
0.7441860465116279
 40
0.7441860465116279
 40
0.7475083056478405
 40
0.7475083056478405
 40
0.7475083056478405
 40
0.7475083056478405
 40
0.7508305647840532
 40
0.7508305647840532
 40
0.7508305647840532
 40
0.7508305647840532
 40
0.7541528239202658
 40
0.7541528239202658
 40
0.7541528239202658
 40
0.7541528239202658
 40
0.7574750830564784
 40
0.7574750830564784
 40
0.7574750830564784
 40
0.7574750830564784
 40
0.760797342192691
 40
0.760797342192691
 40
0.760797342192691
 40
0.760797342192691
 40
0.7641196013289037
 40
0.7641196013289037
 40
0.7641196013289037
 40
0.7641196013289037
 40
0.7674418604651163
 40
0.7674418604651163
 40
0.7674418604651163
 40
0.7674418604651163
 40
0.770764119601329
 40
0.770764119601329
 40
0.770764119601329
 40
0.770764119601329
 40
0.7740863787375415
 40
0.7740863787375415
 40
0.7740863787375415
 40
0.7740863787375415
 40
0.7774086378737541
 40
0.7774086378737541
 40
0.7774086378737541
 40
0.7774086378737541
 40
0.7807308970099668
 40
0.7807308970099668
 40
0.7807308970099668
 40
0.7807308970099668
 40
0.7840531561461794
 40
0.7840531561461794
 40
0.7840531561461794
 40
0.7840531561461794
 40
0.7873754152823921
 40
0.7873754152823921
 40
0.7873754152823921
 40
0.7873754152823921
 40
0.7906976744186046
 40
0.7906976744186046
 40
0.7906976744186046
 40
0.7906976744186046
 40
0.7940199335548173
 40
0.7940199335548173
 40
0.7940199335548173
 40
0.7940199335548173
 40
0.7973421926910299
 40
0.7973421926910299
 40
0.7973421926910299
 40
0.7973421926910299
 40
0.8006644518272426
 40
0.8006644518272426
 40
0.8006644518272426
 40
0.8006644518272426
 40
0.8039867109634552
 40
0.8039867109634552
 40
0.8039867109634552
 40
0.8039867109634552
 40
0.8073089700996677
 40
0.8073089700996677
 40
0.8073089700996677
 40
0.8073089700996677
 40
0.8106312292358804
 40
0.8106312292358804
 40
0.8106312292358804
 40
0.8106312292358804
 40
0.813953488372093
 40
0.813953488372093
 40
0.813953488372093
 40
0.813953488372093
 40
0.8172757475083057
 40
0.8172757475083057
 40
0.8172757475083057
 40
0.8172757475083057
 40
0.8205980066445183
 40
0.8205980066445183
 40
0.8205980066445183
 40
0.8205980066445183
 40
0.8239202657807309
 40
0.8239202657807309
 40
0.8239202657807309
 40
0.8239202657807309
 40
0.8272425249169435
 40
0.8272425249169435
 40
0.8272425249169435
 40
0.8272425249169435
 40
0.8305647840531561
 40
0.8305647840531561
 40
0.8305647840531561
 40
0.8305647840531561
 40
0.8338870431893688
 40
0.8338870431893688
 40
0.8338870431893688
 40
0.8338870431893688
 40
0.8372093023255814
 40
0.8372093023255814
 40
0.8372093023255814
 40
0.8372093023255814
 40
0.840531561461794
 40
0.840531561461794
 40
0.840531561461794
 40
0.840531561461794
 40
0.8438538205980066
 40
0.8438538205980066
 40
0.8438538205980066
 40
0.8438538205980066
 40
0.8471760797342193
 40
0.8471760797342193
 40
0.8471760797342193
 40
0.8471760797342193
 40
0.8504983388704319
 40
0.8504983388704319
 40
0.8504983388704319
 40
0.8504983388704319
 40
0.8538205980066446
 40
0.8538205980066446
 40
0.8538205980066446
 40
0.8538205980066446
 40
0.8571428571428571
 40
0.8571428571428571
 40
0.8571428571428571
 40
0.8571428571428571
 40
0.8604651162790697
 40
0.8604651162790697
 40
0.8604651162790697
 40
0.8604651162790697
 40
0.8637873754152824
 40
0.8637873754152824
 40
0.8637873754152824
 40
0.8637873754152824
 40
0.867109634551495
 40
0.867109634551495
 40
0.867109634551495
 40
0.867109634551495
 40
0.8704318936877077
 40
0.8704318936877077
 40
0.8704318936877077
 40
0.8704318936877077
 40
0.8737541528239202
 40
0.8737541528239202
 40
0.8737541528239202
 40
0.8737541528239202
 40
0.8770764119601329
 40
0.8770764119601329
 40
0.8770764119601329
 40
0.8770764119601329
 40
0.8803986710963455
 40
0.8803986710963455
 40
0.8803986710963455
 40
0.8803986710963455
 40
0.8837209302325582
 40
0.8837209302325582
 40
0.8837209302325582
 40
0.8837209302325582
 40
0.8870431893687708
 40
0.8870431893687708
 40
0.8870431893687708
 40
0.8870431893687708
 40
0.8903654485049833
 40
0.8903654485049833
 40
0.8903654485049833
 40
0.8903654485049833
 40
0.893687707641196
 40
0.893687707641196
 40
0.893687707641196
 40
0.893687707641196
 40
0.8970099667774086
 40
0.8970099667774086
 40
0.8970099667774086
 40
0.8970099667774086
 40
0.9003322259136213
 40
0.9003322259136213
 40
0.9003322259136213
 40
0.9003322259136213
 40
0.9036544850498339
 40
0.9036544850498339
 40
0.9036544850498339
 40
0.9036544850498339
 40
0.9069767441860465
 40
0.9069767441860465
 40
0.9069767441860465
 40
0.9069767441860465
 40
0.9102990033222591
 40
0.9102990033222591
 40
0.9102990033222591
 40
0.9102990033222591
 40
0.9136212624584718
 40
0.9136212624584718
 40
0.9136212624584718
 40
0.9136212624584718
 40
0.9169435215946844
 40
0.9169435215946844
 40
0.9169435215946844
 40
0.9169435215946844
 40
0.920265780730897
 40
0.920265780730897
 40
0.920265780730897
 40
0.920265780730897
 40
0.9235880398671097
 40
0.9235880398671097
 40
0.9235880398671097
 40
0.9235880398671097
 40
0.9269102990033222
 40
0.9269102990033222
 40
0.9269102990033222
 40
0.9269102990033222
 40
0.9302325581395349
 40
0.9302325581395349
 40
0.9302325581395349
 40
0.9302325581395349
 40
0.9335548172757475
 40
0.9335548172757475
 40
0.9335548172757475
 40
0.9335548172757475
 40
0.9368770764119602
 40
0.9368770764119602
 40
0.9368770764119602
 40
0.9368770764119602
 40
0.9401993355481728
 40
0.9401993355481728
 40
0.9401993355481728
 40
0.9401993355481728
 40
0.9435215946843853
 40
0.9435215946843853
 40
0.9435215946843853
 40
0.9435215946843853
 40
0.946843853820598
 40
0.946843853820598
 40
0.946843853820598
 40
0.946843853820598
 40
0.9501661129568106
 40
0.9501661129568106
 40
0.9501661129568106
 40
0.9501661129568106
 40
0.9534883720930233
 40
0.9534883720930233
 40
0.9534883720930233
 40
0.9534883720930233
 40
0.9568106312292359
 40
0.9568106312292359
 40
0.9568106312292359
 40
0.9568106312292359
 40
0.9601328903654485
 40
0.9601328903654485
 40
0.9601328903654485
 40
0.9601328903654485
 40
0.9634551495016611
 40
0.9634551495016611
 40
0.9634551495016611
 40
0.9634551495016611
 40
0.9667774086378738
 40
0.9667774086378738
 40
0.9667774086378738
 40
0.9667774086378738
 40
0.9700996677740864
 40
0.9700996677740864
 40
0.9700996677740864
 40
0.9700996677740864
 40
0.973421926910299
 40
0.973421926910299
 40
0.973421926910299
 40
0.973421926910299
 40
0.9767441860465116
 40
0.9767441860465116
 40
0.9767441860465116
 40
0.9767441860465116
 40
0.9800664451827242
 40
0.9800664451827242
 40
0.9800664451827242
 40
0.9800664451827242
 40
0.9833887043189369
 40
0.9833887043189369
 40
0.9833887043189369
 40
0.9833887043189369
 40
0.9867109634551495
 40
0.9867109634551495
 40
0.9867109634551495
 40
0.9867109634551495
 40
0.9900332225913622
 40
0.9900332225913622
 40
0.9900332225913622
 40
0.9900332225913622
 40
0.9933554817275747
 40
0.9933554817275747
 40
0.9933554817275747
 40
0.9933554817275747
 40
1.0
 40
1.0
 40
1.0
 40
1.0
 10
-242.9097
 20
-91.3463
 30
0.0
 10
-242.9097
 20
-91.3463
 30
0.0
 10
-239.4701
 20
-78.6463
 30
0.0
 10
-239.4701
 20
-78.6463
 30
0.0
 10
-239.4701
 20
-78.6463
 30
0.0
 10
-239.4701
 20
-78.6463
 30
0.0
 10
-241.0576
 20
-71.7672
 30
0.0
 10
-241.0576
 20
-71.7672
 30
0.0
 10
-241.0576
 20
-71.7672
 30
0.0
 10
-241.0576
 20
-71.7672
 30
0.0
 10
-235.2368
 20
-67.5338
 30
0.0
 10
-235.2368
 20
-67.5338
 30
0.0
 10
-235.2368
 20
-67.5338
 30
0.0
 10
-235.2368
 20
-67.5338
 30
0.0
 10
-234.9722
 20
-52.7172
 30
0.0
 10
-234.9722
 20
-52.7172
 30
0.0
 10
-234.9722
 20
-52.7172
 30
0.0
 10
-234.9722
 20
-52.7172
 30
0.0
 10
-237.618
 20
-51.3943
 30
0.0
 10
-237.618
 20
-51.3943
 30
0.0
 10
-237.618
 20
-51.3943
 30
0.0
 10
-237.618
 20
-51.3943
 30
0.0
 10
-237.618
 20
-47.4255
 30
0.0
 10
-237.618
 20
-47.4255
 30
0.0
 10
-237.618
 20
-47.4255
 30
0.0
 10
-237.618
 20
-47.4255
 30
0.0
 10
-220.6847
 20
-46.8964
 30
0.0
 10
-220.6847
 20
-46.8964
 30
0.0
 10
-220.6847
 20
-46.8964
 30
0.0
 10
-220.6847
 20
-46.8964
 30
0.0
 10
-220.4201
 20
-44.2506
 30
0.0
 10
-220.4201
 20
-44.2506
 30
0.0
 10
-220.4201
 20
-44.2506
 30
0.0
 10
-220.4201
 20
-44.2506
 30
0.0
 10
-213.2764
 20
-38.4297
 30
0.0
 10
-213.2764
 20
-38.4297
 30
0.0
 10
-213.2764
 20
-38.4297
 30
0.0
 10
-213.2764
 20
-38.4297
 30
0.0
 10
-223.595
 20
1.2577
 30
0.0
 10
-223.595
 20
1.2577
 30
0.0
 10
-223.595
 20
1.2577
 30
0.0
 10
-223.595
 20
1.2577
 30
0.0
 10
-233.9137
 20
-2.9756
 30
0.0
 10
-233.9137
 20
-2.9756
 30
0.0
 10
-233.9137
 20
-2.9756
 30
0.0
 10
-237.3879
 20
-1.6699
 30
0.0
 10
-238.1127
 20
1.0103
 30
0.0
 10
-237.3533
 20
4.4327
 30
0.0
 10
-237.3533
 20
4.4327
 30
0.0
 10
-237.3533
 20
4.4327
 30
0.0
 10
-225.9764
 20
10.7829
 30
0.0
 10
-225.9764
 20
10.7829
 30
0.0
 10
-225.9764
 20
10.7829
 30
0.0
 10
-225.9764
 20
10.7829
 30
0.0
 10
-222.0076
 20
8.6662
 30
0.0
 10
-222.0076
 20
8.6662
 30
0.0
 10
-222.0076
 20
8.6662
 30
0.0
 10
-220.4201
 20
8.6662
 30
0.0
 10
-218.665
 20
7.9563
 30
0.0
 10
-217.2451
 20
8.6662
 30
0.0
 10
-217.2451
 20
8.6662
 30
0.0
 10
-215.5681
 20
9.5047
 30
0.0
 10
-215.2442
 20
12.1155
 30
0.0
 10
-213.541
 20
12.8995
 30
0.0
 10
-213.541
 20
12.8995
 30
0.0
 10
-209.4797
 20
14.769
 30
0.0
 10
-205.0473
 20
16.3391
 30
0.0
 10
-200.5764
 20
16.3391
 30
0.0
 10
-200.5764
 20
16.3391
 30
0.0
 10
-197.1177
 20
16.3391
 30
0.0
 10
-194.2432
 20
12.7739
 30
0.0
 10
-190.7868
 20
12.8995
 30
0.0
 10
-190.7868
 20
12.8995
 30
0.0
 10
-188.7218
 20
12.9745
 30
0.0
 10
-188.0452
 20
16.4369
 30
0.0
 10
-186.0243
 20
16.8683
 30
0.0
 10
-186.0243
 20
16.8683
 30
0.0
 10
-179.8908
 20
18.1777
 30
0.0
 10
-173.5011
 20
18.2706
 30
0.0
 10
-167.2389
 20
17.9266
 30
0.0
 10
-167.2389
 20
17.9266
 30
0.0
 10
-165.3076
 20
17.8206
 30
0.0
 10
-163.8814
 20
15.5454
 30
0.0
 10
-161.9472
 20
15.5454
 30
0.0
 10
-161.9472
 20
15.5454
 30
0.0
 10
-159.4372
 20
15.5454
 30
0.0
 10
-157.2106
 20
17.2154
 30
0.0
 10
-154.8034
 20
17.9266
 30
0.0
 10
-154.8034
 20
17.9266
 30
0.0
 10
-153.3263
 20
18.363
 30
0.0
 10
-151.8138
 20
19.2969
 30
0.0
 10
-150.3055
 20
18.9849
 30
0.0
 10
-150.3055
 20
18.9849
 30
0.0
 10
-150.0922
 20
18.9408
 30
0.0
 10
-149.8711
 20
18.9003
 30
0.0
 10
-149.6441
 20
18.8623
 30
0.0
 10
-149.6441
 20
18.8623
 30
0.0
 10
-149.6441
 20
18.8623
 30
0.0
 10
-148.5031
 20
18.4059
 30
0.0
 10
-148.5031
 20
18.4059
 30
0.0
 10
-148.5031
 20
18.4059
 30
0.0
 10
-148.385
 20
21.4833
 30
0.0
 10
-148.4093
 20
24.3981
 30
0.0
 10
-147.157
 20
28.0312
 30
0.0
 10
-147.157
 20
28.0312
 30
0.0
 10
-146.9104
 20
28.7467
 30
0.0
 10
-147.2676
 20
28.9396
 30
0.0
 10
-146.8697
 20
29.7283
 30
0.0
 10
-146.8697
 20
29.7283
 30
0.0
 10
-145.918
 20
31.6166
 30
0.0
 10
-145.8407
 20
33.6252
 30
0.0
 10
-145.8345
 20
35.7333
 30
0.0
 10
-145.8345
 20
35.7333
 30
0.0
 10
-145.8345
 20
35.7333
 30
0.0
 10
-151.7046
 20
34.2658
 30
0.0
 10
-151.7046
 20
34.2658
 30
0.0
 10
-151.7046
 20
34.2658
 30
0.0
 10
-151.8993
 20
34.3689
 30
0.0
 10
-152.0893
 20
34.4852
 30
0.0
 10
-152.2737
 20
34.6167
 30
0.0
 10
-152.2737
 20
34.6167
 30
0.0
 10
-154.078
 20
35.9035
 30
0.0
 10
-154.607
 20
38.0095
 30
0.0
 10
-154.8495
 20
40.0898
 30
0.0
 10
-154.8495
 20
40.0898
 30
0.0
 10
-155.2538
 20
43.5577
 30
0.0
 10
-155.3443
 20
46.9836
 30
0.0
 10
-154.8707
 20
50.4481
 30
0.0
 10
-154.8707
 20
50.4481
 30
0.0
 10
-154.6115
 20
52.3437
 30
0.0
 10
-154.0861
 20
54.2643
 30
0.0
 10
-153.8928
 20
56.1361
 30
0.0
 10
-153.8928
 20
56.1361
 30
0.0
 10
-153.7413
 20
57.6036
 30
0.0
 10
-153.9372
 20
58.8265
 30
0.0
 10
-154.3962
 20
60.202
 30
0.0
 10
-154.3962
 20
60.202
 30
0.0
 10
-154.872
 20
60.8635
 30
0.0
 10
-155.2525
 20
61.3018
 30
0.0
 10
-155.6509
 20
62.1087
 30
0.0
 10
-155.6509
 20
62.1087
 30
0.0
 10
-156.4432
 20
63.7136
 30
0.0
 10
-156.8195
 20
65.5884
 30
0.0
 10
-157.0365
 20
67.3524
 30
0.0
 10
-157.0365
 20
67.3524
 30
0.0
 10
-157.2307
 20
68.9314
 30
0.0
 10
-157.7927
 20
70.6537
 30
0.0
 10
-158.3079
 20
72.157
 30
0.0
 10
-158.3079
 20
72.157
 30
0.0
 10
-158.8537
 20
73.7497
 30
0.0
 10
-159.4602
 20
75.3202
 30
0.0
 10
-160.0109
 20
76.9106
 30
0.0
 10
-160.0109
 20
76.9106
 30
0.0
 10
-160.4621
 20
78.2137
 30
0.0
 10
-161.021
 20
79.8649
 30
0.0
 10
-161.0048
 20
81.2476
 30
0.0
 10
-161.0048
 20
81.2476
 30
0.0
 10
-160.9827
 20
83.1341
 30
0.0
 10
-160.6746
 20
85.2209
 30
0.0
 10
-160.414
 20
87.0937
 30
0.0
 10
-160.414
 20
87.0937
 30
0.0
 10
-160.2251
 20
88.4521
 30
0.0
 10
-160.0196
 20
89.8081
 30
0.0
 10
-159.8106
 20
91.1636
 30
0.0
 10
-159.8106
 20
91.1636
 30
0.0
 10
-159.7275
 20
91.7017
 30
0.0
 10
-159.6263
 20
92.2644
 30
0.0
 10
-159.5492
 20
92.8149
 30
0.0
 10
-159.5492
 20
92.8149
 30
0.0
 10
-159.5492
 20
92.8149
 30
0.0
 10
-159.8365
 20
93.7316
 30
0.0
 10
-159.8365
 20
93.7316
 30
0.0
 10
-159.8365
 20
93.7316
 30
0.0
 10
-159.8365
 20
93.7316
 30
0.0
 10
-158.8422
 20
94.9781
 30
0.0
 10
-158.8422
 20
94.9781
 30
0.0
 10
-158.8422
 20
94.9781
 30
0.0
 10
-158.5017
 20
95.4049
 30
0.0
 10
-158.2685
 20
95.6483
 30
0.0
 10
-158.0288
 20
95.8285
 30
0.0
 10
-158.0288
 20
95.8285
 30
0.0
 10
-157.5186
 20
97.3988
 30
0.0
 10
-156.482
 20
98.6777
 30
0.0
 10
-155.3402
 20
99.9253
 30
0.0
 10
-155.3402
 20
99.9253
 30
0.0
 10
-155.4082
 20
100.182
 30
0.0
 10
-155.5254
 20
100.4928
 30
0.0
 10
-155.6515
 20
100.785
 30
0.0
 10
-155.6515
 20
100.785
 30
0.0
 10
-155.6515
 20
100.785
 30
0.0
 10
-155.9689
 20
100.8906
 30
0.0
 10
-155.9689
 20
100.8906
 30
0.0
 10
-155.9689
 20
100.8906
 30
0.0
 10
-155.9689
 20
100.8906
 30
0.0
 10
-156.4216
 20
102.3718
 30
0.0
 10
-156.4216
 20
102.3718
 30
0.0
 10
-156.4216
 20
102.3718
 30
0.0
 10
-156.43
 20
102.3995
 30
0.0
 10
-156.4388
 20
102.4287
 30
0.0
 10
-156.4487
 20
102.4566
 30
0.0
 10
-156.4487
 20
102.4566
 30
0.0
 10
-156.8869
 20
103.3204
 30
0.0
 10
-156.904
 20
103.9482
 30
0.0
 10
-156.904
 20
104.8928
 30
0.0
 10
-156.904
 20
104.8928
 30
0.0
 10
-156.904
 20
106.7058
 30
0.0
 10
-156.7344
 20
107.8858
 30
0.0
 10
-156.1045
 20
109.5026
 30
0.0
 10
-156.1045
 20
109.5026
 30
0.0
 10
-156.1045
 20
109.5026
 30
0.0
 10
-157.0066
 20
109.5654
 30
0.0
 10
-157.0066
 20
109.5654
 30
0.0
 10
-157.0066
 20
109.5654
 30
0.0
 10
-157.0066
 20
109.5654
 30
0.0
 10
-157.7959
 20
110.9936
 30
0.0
 10
-157.7959
 20
110.9936
 30
0.0
 10
-157.7959
 20
110.9936
 30
0.0
 10
-158.7184
 20
112.6628
 30
0.0
 10
-158.1754
 20
114.2031
 30
0.0
 10
-157.8673
 20
115.8759
 30
0.0
 10
-157.8673
 20
115.8759
 30
0.0
 10
-157.8673
 20
115.8759
 30
0.0
 10
-157.8144
 20
116.1631
 30
0.0
 10
-157.8144
 20
116.1631
 30
0.0
 10
-157.8144
 20
116.1631
 30
0.0
 10
-157.6238
 20
117.1979
 30
0.0
 10
-157.2698
 20
118.1222
 30
0.0
 10
-156.7424
 20
119.0296
 30
0.0
 10
-156.7424
 20
119.0296
 30
0.0
 10
-156.5731
 20
119.3209
 30
0.0
 10
-156.2708
 20
119.7299
 30
0.0
 10
-156.1312
 20
120.0284
 30
0.0
 10
-156.1312
 20
120.0284
 30
0.0
 10
-155.8507
 20
121.1788
 30
0.0
 10
-155.7311
 20
121.8358
 30
0.0
 10
-155.957
 20
122.9822
 30
0.0
 10
-155.957
 20
122.9822
 30
0.0
 10
-156.187
 20
124.1499
 30
0.0
 10
-156.2458
 20
125.1008
 30
0.0
 10
-156.099
 20
126.2936
 30
0.0
 10
-156.099
 20
126.2936
 30
0.0
 10
-155.9483
 20
127.5186
 30
0.0
 10
-155.8012
 20
128.7995
 30
0.0
 10
-155.9633
 20
130.031
 30
0.0
 10
-155.9633
 20
130.031
 30
0.0
 10
-156.1336
 20
131.3235
 30
0.0
 10
-156.3644
 20
132.5433
 30
0.0
 10
-156.4836
 20
133.8585
 30
0.0
 10
-156.4836
 20
133.8585
 30
0.0
 10
-156.8304
 20
137.6869
 30
0.0
 10
-157.4434
 20
139.9339
 30
0.0
 10
-156.2445
 20
143.8675
 30
0.0
 10
-156.2445
 20
143.8675
 30
0.0
 10
-155.9871
 20
144.712
 30
0.0
 10
-155.7763
 20
147.2727
 30
0.0
 10
-155.9335
 20
148.3672
 30
0.0
 10
-155.9335
 20
148.3672
 30
0.0
 10
-157.319
 20
150.2275
 30
0.0
 10
-158.4548
 20
152.7251
 30
0.0
 10
-158.3564
 20
155.0273
 30
0.0
 10
-158.3564
 20
155.0273
 30
0.0
 10
-158.3228
 20
155.8124
 30
0.0
 10
-158.3643
 20
156.5968
 30
0.0
 10
-158.6617
 20
157.3319
 30
0.0
 10
-158.6617
 20
157.3319
 30
0.0
 10
-158.9937
 20
158.1524
 30
0.0
 10
-159.3388
 20
158.6912
 30
0.0
 10
-159.4885
 20
159.5091
 30
0.0
 10
-159.4885
 20
159.5091
 30
0.0
 10
-160.496
 20
162.2473
 30
0.0
 10
-160.5034
 20
165.4109
 30
0.0
 10
-160.8448
 20
168.2847
 30
0.0
 10
-160.8448
 20
168.2847
 30
0.0
 10
-160.8807
 20
168.3425
 30
0.0
 10
-160.9301
 20
168.4058
 30
0.0
 10
-160.9651
 20
168.4503
 30
0.0
 10
-160.9651
 20
168.4503
 30
0.0
 10
-161.8834
 20
169.6171
 30
0.0
 10
-163.0526
 20
170.1659
 30
0.0
 10
-163.2559
 20
171.8891
 30
0.0
 10
-163.2559
 20
171.8891
 30
0.0
 10
-163.2845
 20
172.131
 30
0.0
 10
-163.3114
 20
172.4168
 30
0.0
 10
-163.3545
 20
172.6772
 30
0.0
 10
-163.3545
 20
172.6772
 30
0.0
 10
-164.0458
 20
173.2931
 30
0.0
 10
-164.6026
 20
174.0875
 30
0.0
 10
-165.0938
 20
174.8543
 30
0.0
 10
-165.0938
 20
174.8543
 30
0.0
 10
-165.3658
 20
175.279
 30
0.0
 10
-165.6463
 20
175.7962
 30
0.0
 10
-165.9361
 20
176.2431
 30
0.0
 10
-165.9361
 20
176.2431
 30
0.0
 10
-167.0358
 20
176.6798
 30
0.0
 10
-167.9873
 20
177.3508
 30
0.0
 10
-168.7501
 20
178.2989
 30
0.0
 10
-168.7501
 20
178.2989
 30
0.0
 10
-169.6003
 20
179.3554
 30
0.0
 10
-170.0359
 20
180.5166
 30
0.0
 10
-170.4304
 20
181.7059
 30
0.0
 10
-170.4304
 20
181.7059
 30
0.0
 10
-170.5556
 20
181.6562
 30
0.0
 10
-170.6822
 20
181.6098
 30
0.0
 10
-170.8099
 20
181.5662
 30
0.0
 10
-170.8099
 20
181.5662
 30
0.0
 10
-170.8099
 20
181.5662
 30
0.0
 10
-170.6061
 20
184.9962
 30
0.0
 10
-170.6061
 20
184.9962
 30
0.0
 10
-170.6061
 20
184.9962
 30
0.0
 10
-170.4794
 20
185.0854
 30
0.0
 10
-170.3576
 20
185.1817
 30
0.0
 10
-170.2414
 20
185.2858
 30
0.0
 10
-170.2414
 20
185.2858
 30
0.0
 10
-170.2414
 20
185.2858
 30
0.0
 10
-170.1863
 20
185.7096
 30
0.0
 10
-170.1863
 20
185.7096
 30
0.0
 10
-170.1863
 20
185.7096
 30
0.0
 10
-170.1675
 20
185.8548
 30
0.0
 10
-170.1468
 20
186.0399
 30
0.0
 10
-170.1243
 20
186.2685
 30
0.0
 10
-170.1243
 20
186.2685
 30
0.0
 10
-170.1102
 20
186.4121
 30
0.0
 10
-170.0898
 20
186.652
 30
0.0
 10
-170.0627
 20
186.9973
 30
0.0
 10
-170.0627
 20
186.9973
 30
0.0
 10
-170.0627
 20
186.9973
 30
0.0
 10
-170.0624
 20
186.9973
 30
0.0
 10
-170.0624
 20
186.9973
 30
0.0
 10
-170.0624
 20
186.9973
 30
0.0
 10
-170.025
 20
187.4762
 30
0.0
 10
-170.0026
 20
187.8181
 30
0.0
 10
-169.9821
 20
188.1337
 30
0.0
 10
-169.9821
 20
188.1337
 30
0.0
 10
-169.9354
 20
188.8521
 30
0.0
 10
-169.8963
 20
189.4522
 30
0.0
 10
-169.8141
 20
190.0358
 30
0.0
 10
-169.8141
 20
190.0358
 30
0.0
 10
-171.6746
 20
187.3808
 30
0.0
 10
-172.8267
 20
184.8185
 30
0.0
 10
-173.8982
 20
184.4101
 30
0.0
 10
-173.8982
 20
184.4101
 30
0.0
 10
-173.9399
 20
184.2849
 30
0.0
 10
-173.9914
 20
184.1615
 30
0.0
 10
-174.0509
 20
184.04
 30
0.0
 10
-174.0509
 20
184.04
 30
0.0
 10
-175.8369
 20
184.0001
 30
0.0
 10
-177.7403
 20
184.4152
 30
0.0
 10
-179.1731
 20
184.8318
 30
0.0
 10
-179.1731
 20
184.8318
 30
0.0
 10
-183.5058
 20
186.0916
 30
0.0
 10
-186.3109
 20
183.7053
 30
0.0
 10
-193.6043
 20
187.7195
 30
0.0
 10
-193.6043
 20
187.7195
 30
0.0
 10
-195.0634
 20
188.5227
 30
0.0
 10
-198.5235
 20
191.1393
 30
0.0
 10
-198.6503
 20
191.2045
 30
0.0
 10
-198.6503
 20
191.2045
 30
0.0
 10
-199.4214
 20
191.6013
 30
0.0
 10
-202.1941
 20
193.6011
 30
0.0
 10
-202.2032
 20
193.6046
 30
0.0
 10
-202.2032
 20
193.6046
 30
0.0
 10
-202.2899
 20
193.8883
 30
0.0
 10
-202.2903
 20
193.6989
 30
0.0
 10
-202.377
 20
193.9826
 30
0.0
 10
-202.377
 20
193.9826
 30
0.0
 10
-202.4038
 20
193.9915
 30
0.0
 10
-204.082
 20
195.9096
 30
0.0
 10
-204.2291
 20
196.0728
 30
0.0
 10
-204.2291
 20
196.0728
 30
0.0
 10
-204.2291
 20
196.0728
 30
0.0
 10
-205.0682
 20
196.7042
 30
0.0
 10
-205.0682
 20
196.7042
 30
0.0
 10
-205.0682
 20
196.7042
 30
0.0
 10
-205.0682
 20
196.7359
 30
0.0
 10
-205.0383
 20
198.0159
 30
0.0
 10
-205.0909
 20
198.1594
 30
0.0
 10
-205.0909
 20
198.1594
 30
0.0
 10
-206.8509
 20
202.9667
 30
0.0
 10
-206.0297
 20
200.3161
 30
0.0
 10
-206.7011
 20
205.0386
 30
0.0
 10
-206.7011
 20
205.0386
 30
0.0
 10
-208.0044
 20
207.422
 30
0.0
 10
-206.7798
 20
215.8212
 30
0.0
 10
-207.1622
 20
218.9292
 30
0.0
 10
-207.1622
 20
218.9292
 30
0.0
 10
-207.9335
 20
225.1984
 30
0.0
 10
-206.4451
 20
224.0926
 30
0.0
 10
-206.1039
 20
226.8667
 30
0.0
 10
-206.1039
 20
226.8667
 30
0.0
 10
-205.1376
 20
234.723
 30
0.0
 10
-206.4381
 20
228.8961
 30
0.0
 10
-203.7907
 20
233.7231
 30
0.0
 10
-203.7907
 20
233.7231
 30
0.0
 10
-201.2426
 20
238.369
 30
0.0
 10
-196.4146
 20
241.8808
 30
0.0
 10
-192.013
 20
244.7676
 30
0.0
 10
-192.013
 20
244.7676
 30
0.0
 10
-188.1772
 20
247.2833
 30
0.0
 10
-185.5363
 20
248.4869
 30
0.0
 10
-180.9911
 20
245.0775
 30
0.0
 10
-180.9911
 20
245.0775
 30
0.0
 10
-178.5186
 20
243.6026
 30
0.0
 10
-180.6364
 20
243.4919
 30
0.0
 10
-175.6995
 20
246.3324
 30
0.0
 10
-175.6995
 20
246.3324
 30
0.0
 10
-172.592
 20
248.1202
 30
0.0
 10
-169.8984
 20
247.555
 30
0.0
 10
-168.5103
 20
244.6391
 30
0.0
 10
-168.5103
 20
244.6391
 30
0.0
 10
-163.5603
 20
243.3477
 30
0.0
 10
-160.6174
 20
240.5013
 30
0.0
 10
-157.3525
 20
245.826
 30
0.0
 10
-157.3525
 20
245.826
 30
0.0
 10
-156.0072
 20
248.0201
 30
0.0
 10
-153.5427
 20
246.913
 30
0.0
 10
-151.4123
 20
246.143
 30
0.0
 10
-151.4123
 20
246.143
 30
0.0
 10
-150.803
 20
245.9228
 30
0.0
 10
-150.378
 20
245.7703
 30
0.0
 10
-149.7703
 20
246.4458
 30
0.0
 10
-149.7703
 20
246.4458
 30
0.0
 10
-149.7703
 20
246.4458
 30
0.0
 10
-148.712
 20
253.325
 30
0.0
 10
-148.712
 20
253.325
 30
0.0
 10
-148.712
 20
253.325
 30
0.0
 10
-148.228
 20
256.2887
 30
0.0
 10
-145.3992
 20
278.7174
 30
0.0
 10
-146.3819
 20
281.7753
 30
0.0
 10
-146.3819
 20
281.7753
 30
0.0
 10
-147.211
 20
284.3548
 30
0.0
 10
-149.1811
 20
286.4645
 30
0.0
 10
-151.0349
 20
288.4404
 30
0.0
 10
-151.0349
 20
288.4404
 30
0.0
 10
-152.412
 20
289.9079
 30
0.0
 10
-153.8502
 20
290.29
 30
0.0
 10
-154.8705
 20
292.0245
 30
0.0
 10
-154.8705
 20
292.0245
 30
0.0
 10
-155.7208
 20
293.4702
 30
0.0
 10
-155.7458
 20
295.3455
 30
0.0
 10
-156.0653
 20
296.9919
 30
0.0
 10
-156.0653
 20
296.9919
 30
0.0
 10
-156.1015
 20
297.179
 30
0.0
 10
-157.5261
 20
300.8792
 30
0.0
 10
-157.7003
 20
301.2048
 30
0.0
 10
-157.7003
 20
301.2048
 30
0.0
 10
-158.2041
 20
302.1469
 30
0.0
 10
-160.2164
 20
304.7562
 30
0.0
 10
-160.4667
 20
305.7949
 30
0.0
 10
-160.4667
 20
305.7949
 30
0.0
 10
-160.7112
 20
306.8092
 30
0.0
 10
-161.23
 20
307.2999
 30
0.0
 10
-160.5343
 20
307.5583
 30
0.0
 10
-160.5343
 20
307.5583
 30
0.0
 10
-159.5908
 20
307.9089
 30
0.0
 10
-157.1615
 20
309.0054
 30
0.0
 10
-155.185
 20
305.6062
 30
0.0
 10
-155.185
 20
305.6062
 30
0.0
 10
-155.0317
 20
305.3426
 30
0.0
 10
-154.1638
 20
302.2317
 30
0.0
 10
-153.5501
 20
301.2676
 30
0.0
 10
-153.5501
 20
301.2676
 30
0.0
 10
-153.5501
 20
301.2676
 30
0.0
 10
-152.6698
 20
299.8843
 30
0.0
 10
-152.6698
 20
299.8843
 30
0.0
 10
-152.6698
 20
299.8843
 30
0.0
 10
-152.4183
 20
301.4772
 30
0.0
 10
-151.4796
 20
303.4278
 30
0.0
 10
-151.8361
 20
305.0003
 30
0.0
 10
-151.8361
 20
305.0003
 30
0.0
 10
-152.4414
 20
307.6698
 30
0.0
 10
-153.5217
 20
309.5578
 30
0.0
 10
-154.3945
 20
312.1522
 30
0.0
 10
-154.3945
 20
312.1522
 30
0.0
 10
-155.0447
 20
314.0854
 30
0.0
 10
-156.5126
 20
316.0804
 30
0.0
 10
-156.4425
 20
318.1191
 30
0.0
 10
-156.4425
 20
318.1191
 30
0.0
 10
-156.4222
 20
318.7113
 30
0.0
 10
-155.7778
 20
319.3766
 30
0.0
 10
-155.185
 20
319.3766
 30
0.0
 10
-155.185
 20
319.3766
 30
0.0
 10
-154.1337
 20
319.3766
 30
0.0
 10
-153.6317
 20
318.4899
 30
0.0
 10
-153.1957
 20
317.5336
 30
0.0
 10
-153.1957
 20
317.5336
 30
0.0
 10
-152.3766
 20
315.7376
 30
0.0
 10
-151.62
 20
314.8828
 30
0.0
 10
-151.1607
 20
312.9631
 30
0.0
 10
-151.1607
 20
312.9631
 30
0.0
 10
-151.1541
 20
312.9357
 30
0.0
 10
-149.0134
 20
306.5978
 30
0.0
 10
-148.96
 20
306.5495
 30
0.0
 10
-148.96
 20
306.5495
 30
0.0
 10
-148.3495
 20
305.9971
 30
0.0
 10
-147.7427
 20
306.01
 30
0.0
 10
-147.5138
 20
306.8009
 30
0.0
 10
-147.5138
 20
306.8009
 30
0.0
 10
-146.6856
 20
309.6623
 30
0.0
 10
-147.1124
 20
312.751
 30
0.0
 10
-147.1365
 20
315.7297
 30
0.0
 10
-147.1365
 20
315.7297
 30
0.0
 10
-147.1542
 20
317.9157
 30
0.0
 10
-147.8571
 20
320.0938
 30
0.0
 10
-147.6396
 20
322.269
 30
0.0
 10
-147.6396
 20
322.269
 30
0.0
 10
-147.5862
 20
322.8032
 30
0.0
 10
-146.9184
 20
323.2574
 30
0.0
 10
-146.3819
 20
323.2752
 30
0.0
 10
-146.3819
 20
323.2752
 30
0.0
 10
-145.4943
 20
323.3047
 30
0.0
 10
-144.5248
 20
323.154
 30
0.0
 10
-144.1975
 20
322.3285
 30
0.0
 10
-144.1975
 20
322.3285
 30
0.0
 10
-143.4082
 20
320.3379
 30
0.0
 10
-143.7733
 20
317.8467
 30
0.0
 10
-143.5557
 20
315.7165
 30
0.0
 10
-143.5557
 20
315.7165
 30
0.0
 10
-143.5557
 20
315.7165
 30
0.0
 10
-142.735
 20
307.6813
 30
0.0
 10
-142.735
 20
307.6813
 30
0.0
 10
-142.735
 20
307.6813
 30
0.0
 10
-141.9456
 20
307.1551
 30
0.0
 10
-141.3865
 20
307.243
 30
0.0
 10
-141.1002
 20
308.0585
 30
0.0
 10
-141.1002
 20
308.0585
 30
0.0
 10
-140.8067
 20
310.3221
 30
0.0
 10
-140.5502
 20
312.6341
 30
0.0
 10
-140.4845
 20
314.9155
 30
0.0
 10
-140.4845
 20
314.9155
 30
0.0
 10
-140.424
 20
317.0172
 30
0.0
 10
-140.858
 20
318.9952
 30
0.0
 10
-140.5245
 20
321.0712
 30
0.0
 10
-140.5245
 20
321.0712
 30
0.0
 10
-140.4293
 20
321.6636
 30
0.0
 10
-139.6876
 20
321.9166
 30
0.0
 10
-139.088
 20
321.8918
 30
0.0
 10
-139.088
 20
321.8918
 30
0.0
 10
-138.5421
 20
321.8692
 30
0.0
 10
-137.9339
 20
321.5492
 30
0.0
 10
-137.8369
 20
321.0115
 30
0.0
 10
-137.8369
 20
321.0115
 30
0.0
 10
-137.4353
 20
318.7839
 30
0.0
 10
-137.7869
 20
316.4825
 30
0.0
 10
-137.7047
 20
314.2206
 30
0.0
 10
-137.7047
 20
314.2206
 30
0.0
 10
-137.7047
 20
314.2206
 30
0.0
 10
-137.4532
 20
307.304
 30
0.0
 10
-137.4532
 20
307.304
 30
0.0
 10
-137.4532
 20
307.304
 30
0.0
 10
-137.055
 20
306.1931
 30
0.0
 10
-135.6115
 20
305.9326
 30
0.0
 10
-135.1896
 20
307.241
 30
0.0
 10
-135.1896
 20
307.241
 30
0.0
 10
-134.6439
 20
308.9334
 30
0.0
 10
-134.4979
 20
311.2719
 30
0.0
 10
-134.4979
 20
313.0504
 30
0.0
 10
-134.4979
 20
313.0504
 30
0.0
 10
-134.4979
 20
314.0873
 30
0.0
 10
-134.5495
 20
314.2445
 30
0.0
 10
-134.1206
 20
315.1883
 30
0.0
 10
-134.1206
 20
315.1883
 30
0.0
 10
-133.9
 20
315.6737
 30
0.0
 10
-133.4518
 20
315.8929
 30
0.0
 10
-132.9888
 20
315.6284
 30
0.0
 10
-132.9888
 20
315.6284
 30
0.0
 10
-132.1087
 20
315.1257
 30
0.0
 10
-131.6872
 20
314.2941
 30
0.0
 10
-131.4797
 20
313.302
 30
0.0
 10
-131.4797
 20
313.302
 30
0.0
 10
-131.2893
 20
312.3912
 30
0.0
 10
-131.8286
 20
311.8423
 30
0.0
 10
-131.857
 20
310.9125
 30
0.0
 10
-131.857
 20
310.9125
 30
0.0
 10
-131.9672
 20
307.3065
 30
0.0
 10
-132.7604
 20
305.5783
 30
0.0
 10
-133.3032
 20
302.0221
 30
0.0
 10
-133.3032
 20
302.0221
 30
0.0
 10
-133.6008
 20
300.0727
 30
0.0
 10
-132.8733
 20
298.0754
 30
0.0
 10
-133.0517
 20
296.1115
 30
0.0
 10
-133.0517
 20
296.1115
 30
0.0
 10
-133.1705
 20
294.8042
 30
0.0
 10
-133.6687
 20
293.5466
 30
0.0
 10
-134.1835
 20
292.3389
 30
0.0
 10
-134.1835
 20
292.3389
 30
0.0
 10
-134.7646
 20
290.9755
 30
0.0
 10
-136.2408
 20
289.9201
 30
0.0
 10
-136.3214
 20
288.4404
 30
0.0
 10
-136.3214
 20
288.4404
 30
0.0
 10
-136.3847
 20
287.2775
 30
0.0
 10
-135.197
 20
285.2586
 30
0.0
 10
-135.0638
 20
284.1018
 30
0.0
 10
-135.0638
 20
284.1018
 30
0.0
 10
-135.0638
 20
284.1018
 30
0.0
 10
-132.5373
 20
262.5835
 30
0.0
 10
-132.5373
 20
262.5835
 30
0.0
 10
-132.5373
 20
262.5835
 30
0.0
 10
-131.2154
 20
251.8406
 30
0.0
 10
-131.2145
 20
240.976
 30
0.0
 10
-130.5531
 20
230.1723
 30
0.0
 10
-130.5531
 20
230.1723
 30
0.0
 10
-130.5973
 20
230.1456
 30
0.0
 10
-131.675
 20
228.8868
 30
0.0
 10
-131.8231
 20
228.7171
 30
0.0
 10
-131.8231
 20
228.7171
 30
0.0
 10
-133.354
 20
226.962
 30
0.0
 10
-132.1523
 20
225.7847
 30
0.0
 10
-132.2786
 20
223.7675
 30
0.0
 10
-132.2786
 20
223.7675
 30
0.0
 10
-131.927
 20
221.2744
 30
0.0
 10
-131.7437
 20
218.7675
 30
0.0
 10
-131.7437
 20
216.2817
 30
0.0
 10
-131.7437
 20
216.2817
 30
0.0
 10
-131.6805
 20
216.2598
 30
0.0
 10
-130.1746
 20
215.2887
 30
0.0
 10
-130.0882
 20
215.246
 30
0.0
 10
-130.0882
 20
215.246
 30
0.0
 10
-127.9026
 20
214.1667
 30
0.0
 10
-127.8869
 20
213.235
 30
0.0
 10
-127.2628
 20
211.1941
 30
0.0
 10
-127.2628
 20
211.1941
 30
0.0
 10
-127.2628
 20
211.1941
 30
0.0
 10
-127.25
 20
211.1552
 30
0.0
 10
-127.25
 20
211.1552
 30
0.0
 10
-127.25
 20
211.1552
 30
0.0
 10
-127.6482
 20
210.1009
 30
0.0
 10
-122.9675
 20
209.6895
 30
0.0
 10
-123.3018
 20
209.0614
 30
0.0
 10
-123.3018
 20
209.0614
 30
0.0
 10
-123.0679
 20
208.9791
 30
0.0
 10
-122.8592
 20
208.8859
 30
0.0
 10
-122.6801
 20
208.7802
 30
0.0
 10
-122.6801
 20
208.7802
 30
0.0
 10
-122.6801
 20
208.7802
 30
0.0
 10
-119.7804
 20
209.3415
 30
0.0
 10
-119.7804
 20
209.3415
 30
0.0
 10
-119.7804
 20
209.3415
 30
0.0
 10
-119.7804
 20
209.3415
 30
0.0
 10
-119.657
 20
209.2278
 30
0.0
 10
-119.657
 20
209.2278
 30
0.0
 10
-119.657
 20
209.2278
 30
0.0
 10
-118.3121
 20
207.9888
 30
0.0
 10
-118.2173
 20
205.5952
 30
0.0
 10
-118.4678
 20
203.8767
 30
0.0
 10
-118.4678
 20
203.8767
 30
0.0
 10
-118.4678
 20
203.8767
 30
0.0
 10
-118.5134
 20
203.5636
 30
0.0
 10
-118.5134
 20
203.5636
 30
0.0
 10
-118.5134
 20
203.5636
 30
0.0
 10
-118.5134
 20
203.5636
 30
0.0
 10
-118.6233
 20
203.267
 30
0.0
 10
-118.6233
 20
203.267
 30
0.0
 10
-118.6233
 20
203.267
 30
0.0
 10
-119.3931
 20
201.1899
 30
0.0
 10
-119.4435
 20
200.0017
 30
0.0
 10
-119.0033
 20
197.8422
 30
0.0
 10
-119.0033
 20
197.8422
 30
0.0
 10
-118.9997
 20
197.8245
 30
0.0
 10
-118.9952
 20
197.8029
 30
0.0
 10
-118.9898
 20
197.7801
 30
0.0
 10
-118.9898
 20
197.7801
 30
0.0
 10
-118.6576
 20
197.7034
 30
0.0
 10
-118.0417
 20
197.7096
 30
0.0
 10
-117.7994
 20
197.7169
 30
0.0
 10
-117.7994
 20
197.7169
 30
0.0
 10
-116.4215
 20
197.7581
 30
0.0
 10
-114.3793
 20
196.9425
 30
0.0
 10
-113.1166
 20
196.3873
 30
0.0
 10
-113.1166
 20
196.3873
 30
0.0
 10
-111.8168
 20
195.8158
 30
0.0
 10
-110.0364
 20
194.9528
 30
0.0
 10
-109.0667
 20
193.8073
 30
0.0
 10
-109.0667
 20
193.8073
 30
0.0
 10
-108.08
 20
192.8535
 30
0.0
 10
-106.8846
 20
191.8214
 30
0.0
 10
-106.458
 20
191.4444
 30
0.0
 10
-106.458
 20
191.4444
 30
0.0
 10
-105.7957
 20
190.9596
 30
0.0
 10
-103.2424
 20
190.0239
 30
0.0
 10
-102.0595
 20
189.7274
 30
0.0
 10
-102.0595
 20
189.7274
 30
0.0
 10
-102.0595
 20
189.7274
 30
0.0
 10
-101.3068
 20
189.9391
 30
0.0
 10
-101.3068
 20
189.9391
 30
0.0
 10
-101.3068
 20
189.9391
 30
0.0
 10
-101.3068
 20
189.9391
 30
0.0
 10
-100.4332
 20
189.3399
 30
0.0
 10
-100.4332
 20
189.3399
 30
0.0
 10
-100.4332
 20
189.3399
 30
0.0
 10
-100.2872
 20
189.3111
 30
0.0
 10
-100.141
 20
189.274
 30
0.0
 10
-99.9949
 20
189.2293
 30
0.0
 10
-99.9949
 20
189.2293
 30
0.0
 10
-97.8356
 20
188.5671
 30
0.0
 10
-95.6474
 20
188.6809
 30
0.0
 10
-93.4836
 20
187.7769
 30
0.0
 10
-93.4836
 20
187.7769
 30
0.0
 10
-92.3582
 20
187.3067
 30
0.0
 10
-91.384
 20
186.6292
 30
0.0
 10
-90.5603
 20
185.7282
 30
0.0
 10
-90.5603
 20
185.7282
 30
0.0
 10
-90.5603
 20
185.7282
 30
0.0
 10
-90.1331
 20
185.2609
 30
0.0
 10
-90.1331
 20
185.2609
 30
0.0
 10
-90.1331
 20
185.2609
 30
0.0
 10
-90.1331
 20
185.2609
 30
0.0
 10
-89.9877
 20
185.0279
 30
0.0
 10
-89.9877
 20
185.0279
 30
0.0
 10
-89.9877
 20
185.0279
 30
0.0
 10
-89.9117
 20
184.9061
 30
0.0
 10
-89.7998
 20
184.7301
 30
0.0
 10
-89.6761
 20
184.5747
 30
0.0
 10
-89.6761
 20
184.5747
 30
0.0
 10
-89.6761
 20
184.5747
 30
0.0
 10
-91.1392
 20
183.1848
 30
0.0
 10
-91.1392
 20
183.1848
 30
0.0
 10
-91.1392
 20
183.1848
 30
0.0
 10
-91.1392
 20
183.1848
 30
0.0
 10
-90.9
 20
182.8622
 30
0.0
 10
-90.9
 20
182.8622
 30
0.0
 10
-90.9
 20
182.8622
 30
0.0
 10
-90.9
 20
182.8622
 30
0.0
 10
-91.3564
 20
182.2679
 30
0.0
 10
-91.3564
 20
182.2679
 30
0.0
 10
-91.3564
 20
182.2679
 30
0.0
 10
-91.394
 20
182.2189
 30
0.0
 10
-91.4342
 20
182.1707
 30
0.0
 10
-91.477
 20
182.1233
 30
0.0
 10
-91.477
 20
182.1233
 30
0.0
 10
-90.5933
 20
181.3353
 30
0.0
 10
-89.5632
 20
181.1365
 30
0.0
 10
-87.6907
 20
180.684
 30
0.0
 10
-87.6907
 20
180.684
 30
0.0
 10
-85.6686
 20
180.1952
 30
0.0
 10
-80.7633
 20
178.7109
 30
0.0
 10
-78.8271
 20
178.7109
 30
0.0
 10
-78.8271
 20
178.7109
 30
0.0
 10
-76.2827
 20
178.7109
 30
0.0
 10
-75.8545
 20
178.4377
 30
0.0
 10
-73.7887
 20
178.1591
 30
0.0
 10
-73.7887
 20
178.1591
 30
0.0
 10
-71.7721
 20
177.8872
 30
0.0
 10
-66.958
 20
176.9002
 30
0.0
 10
-65.3334
 20
177.5203
 30
0.0
 10
-65.3334
 20
177.5203
 30
0.0
 10
-64.8159
 20
177.5203
 30
0.0
 10
-60.8614
 20
176.5542
 30
0.0
 10
-60.4613
 20
176.7493
 30
0.0
 10
-60.4613
 20
176.7493
 30
0.0
 10
-59.1199
 20
177.4036
 30
0.0
 10
-52.5278
 20
178.3948
 30
0.0
 10
-52.3688
 20
177.388
 30
0.0
 10
-52.3688
 20
177.388
 30
0.0
 10
-50.8907
 20
177.5266
 30
0.0
 10
-49.2822
 20
174.1163
 30
0.0
 10
-48.5871
 20
173.2812
 30
0.0
 10
-48.5871
 20
173.2812
 30
0.0
 10
-47.5396
 20
172.0228
 30
0.0
 10
-43.3695
 20
167.8082
 30
0.0
 10
-43.2294
 20
166.8991
 30
0.0
 10
-43.2294
 20
166.8991
 30
0.0
 10
-43.0219
 20
166.7259
 30
0.0
 10
-42.1047
 20
165.1681
 30
0.0
 10
-41.9933
 20
164.9072
 30
0.0
 10
-41.9933
 20
164.9072
 30
0.0
 10
-41.9933
 20
164.9072
 30
0.0
 10
-41.8383
 20
164.5444
 30
0.0
 10
-41.8383
 20
164.5444
 30
0.0
 10
-41.8383
 20
164.5444
 30
0.0
 10
-40.8839
 20
163.4371
 30
0.0
 10
-40.6989
 20
161.73
 30
0.0
 10
-40.3075
 20
160.4206
 30
0.0
 10
-40.3075
 20
160.4206
 30
0.0
 10
-39.0976
 20
156.3724
 30
0.0
 10
-39.2532
 20
150.7179
 30
0.0
 10
-40.7384
 20
146.8399
 30
0.0
 10
-40.7384
 20
146.8399
 30
0.0
 10
-41.8595
 20
143.9123
 30
0.0
 10
-42.6708
 20
146.0083
 30
0.0
 10
-43.6375
 20
146.564
 30
0.0
 10
-43.6375
 20
146.564
 30
0.0
 10
-43.6375
 20
149.5073
 30
0.0
 10
-43.2917
 20
151.817
 30
0.0
 10
-44.4653
 20
154.4902
 30
0.0
 10
-44.4653
 20
154.4902
 30
0.0
 10
-44.602
 20
154.5258
 30
0.0
 10
-44.8097
 20
154.5015
 30
0.0
 10
-44.9604
 20
154.5015
 30
0.0
 10
-44.9604
 20
154.5015
 30
0.0
 10
-44.9591
 20
154.4748
 30
0.0
 10
-45.2852
 20
153.1113
 30
0.0
 10
-45.346
 20
152.4717
 30
0.0
 10
-45.346
 20
152.4717
 30
0.0
 10
-45.6408
 20
149.3679
 30
0.0
 10
-45.3035
 20
149.4948
 30
0.0
 10
-45.3573
 20
147.0932
 30
0.0
 10
-45.3573
 20
147.0932
 30
0.0
 10
-45.3859
 20
145.8153
 30
0.0
 10
-44.1524
 20
143.224
 30
0.0
 10
-44.5749
 20
142.342
 30
0.0
 10
-44.5749
 20
142.342
 30
0.0
 10
-44.8891
 20
141.2042
 30
0.0
 10
-47.2672
 20
141.2723
 30
0.0
 10
-48.1354
 20
141.2723
 30
0.0
 10
-48.1354
 20
141.2723
 30
0.0
 10
-48.1354
 20
141.6815
 30
0.0
 10
-48.6661
 20
143.6262
 30
0.0
 10
-48.6646
 20
143.6423
 30
0.0
 10
-48.6646
 20
143.6423
 30
0.0
 10
-48.5494
 20
144.882
 30
0.0
 10
-49.9875
 20
146.8126
 30
0.0
 10
-49.9875
 20
143.7859
 30
0.0
 10
-49.9875
 20
143.7859
 30
0.0
 10
-49.9875
 20
141.5635
 30
0.0
 10
-49.6944
 20
140.6109
 30
0.0
 10
-51.6846
 20
140.6109
 30
0.0
 10
-51.6846
 20
140.6109
 30
0.0
 10
-53.8788
 20
140.6109
 30
0.0
 10
-53.6917
 20
145.0334
 30
0.0
 10
-53.6917
 20
146.6509
 30
0.0
 10
-53.6917
 20
146.6509
 30
0.0
 10
-53.6917
 20
146.2783
 30
0.0
 10
-53.7233
 20
145.6999
 30
0.0
 10
-53.858
 20
145.3734
 30
0.0
 10
-53.858
 20
145.3734
 30
0.0
 10
-54.8928
 20
142.865
 30
0.0
 10
-52.6262
 20
141.4352
 30
0.0
 10
-55.6761
 20
141.6805
 30
0.0
 10
-55.6761
 20
141.6805
 30
0.0
 10
-56.9921
 20
141.7864
 30
0.0
 10
-57.691
 20
146.8485
 30
0.0
 10
-57.6605
 20
147.6223
 30
0.0
 10
-57.6605
 20
147.6223
 30
0.0
 10
-57.5909
 20
149.387
 30
0.0
 10
-60.2366
 20
152.9092
 30
0.0
 10
-61.3306
 20
154.5015
 30
0.0
 10
-61.3306
 20
154.5015
 30
0.0
 10
-62.5425
 20
156.2654
 30
0.0
 10
-64.2227
 20
158.6211
 30
0.0
 10
-66.3919
 20
159.3966
 30
0.0
 10
-66.3919
 20
159.3966
 30
0.0
 10
-67.0435
 20
158.8567
 30
0.0
 10
-67.0664
 20
159.2344
 30
0.0
 10
-67.8471
 20
159.1093
 30
0.0
 10
-67.8471
 20
159.1093
 30
0.0
 10
-71.0388
 20
157.9284
 30
0.0
 10
-79.1772
 20
156.4862
 30
0.0
 10
-82.4635
 20
156.4862
 30
0.0
 10
-82.4635
 20
156.4862
 30
0.0
 10
-89.8241
 20
156.4862
 30
0.0
 10
-92.9545
 20
158.7129
 30
0.0
 10
-95.4978
 20
159.4559
 30
0.0
 10
-95.4978
 20
159.4559
 30
0.0
 10
-95.4978
 20
159.4559
 30
0.0
 10
-98.8219
 20
157.611
 30
0.0
 10
-98.8219
 20
157.611
 30
0.0
 10
-98.8219
 20
157.611
 30
0.0
 10
-98.8471
 20
157.597
 30
0.0
 10
-98.872
 20
157.5827
 30
0.0
 10
-98.8968
 20
157.5681
 30
0.0
 10
-98.8968
 20
157.5681
 30
0.0
 10
-98.8968
 20
157.5681
 30
0.0
 10
-97.7393
 20
155.91
 30
0.0
 10
-97.7393
 20
155.91
 30
0.0
 10
-97.7393
 20
155.91
 30
0.0
 10
-97.9989
 20
155.792
 30
0.0
 10
-98.2861
 20
155.5749
 30
0.0
 10
-98.3166
 20
155.3261
 30
0.0
 10
-98.3166
 20
155.3261
 30
0.0
 10
-98.5221
 20
153.6559
 30
0.0
 10
-98.6105
 20
151.7851
 30
0.0
 10
-98.1599
 20
150.1432
 30
0.0
 10
-98.1599
 20
150.1432
 30
0.0
 10
-97.8523
 20
149.0224
 30
0.0
 10
-97.2803
 20
148.0499
 30
0.0
 10
-96.8232
 20
146.9918
 30
0.0
 10
-96.8232
 20
146.9918
 30
0.0
 10
-96.1948
 20
145.537
 30
0.0
 10
-95.8962
 20
144.153
 30
0.0
 10
-95.9367
 20
142.561
 30
0.0
 10
-95.9367
 20
142.561
 30
0.0
 10
-96.0015
 20
140.0087
 30
0.0
 10
-95.9212
 20
137.9219
 30
0.0
 10
-95.105
 20
135.5025
 30
0.0
 10
-95.105
 20
135.5025
 30
0.0
 10
-94.3659
 20
133.3118
 30
0.0
 10
-93.7592
 20
131.5122
 30
0.0
 10
-93.3568
 20
129.1957
 30
0.0
 10
-93.3568
 20
129.1957
 30
0.0
 10
-93.1927
 20
128.2514
 30
0.0
 10
-93.019
 20
127.31
 30
0.0
 10
-92.8484
 20
126.3671
 30
0.0
 10
-92.8484
 20
126.3671
 30
0.0
 10
-92.7582
 20
125.8684
 30
0.0
 10
-92.6717
 20
125.3778
 30
0.0
 10
-92.6605
 20
124.8694
 30
0.0
 10
-92.6605
 20
124.8694
 30
0.0
 10
-92.6515
 20
124.4616
 30
0.0
 10
-92.6897
 20
124.0506
 30
0.0
 10
-92.71
 20
123.6432
 30
0.0
 10
-92.71
 20
123.6432
 30
0.0
 10
-92.7534
 20
122.7749
 30
0.0
 10
-92.7607
 20
121.9011
 30
0.0
 10
-92.7607
 20
121.032
 30
0.0
 10
-92.7607
 20
121.032
 30
0.0
 10
-92.7607
 20
119.1425
 30
0.0
 10
-92.4163
 20
117.41
 30
0.0
 10
-91.7981
 20
115.6328
 30
0.0
 10
-91.7981
 20
115.6328
 30
0.0
 10
-91.2819
 20
114.1486
 30
0.0
 10
-90.3961
 20
112.4786
 30
0.0
 10
-90.7303
 20
110.8814
 30
0.0
 10
-90.7303
 20
110.8814
 30
0.0
 10
-90.9527
 20
109.8183
 30
0.0
 10
-91.2293
 20
108.6817
 30
0.0
 10
-91.74
 20
107.6956
 30
0.0
 10
-91.74
 20
107.6956
 30
0.0
 10
-91.7132
 20
107.6256
 30
0.0
 10
-91.6863
 20
107.5556
 30
0.0
 10
-91.6594
 20
107.4855
 30
0.0
 10
-91.6594
 20
107.4855
 30
0.0
 10
-91.6594
 20
107.4855
 30
0.0
 10
-83.4171
 20
106.3408
 30
0.0
 10
-83.4171
 20
106.3408
 30
0.0
 10
-83.4171
 20
106.3408
 30
0.0
 10
-83.4171
 20
106.3408
 30
0.0
 10
-78.8473
 20
104.0558
 30
0.0
 10
-78.8473
 20
104.0558
 30
0.0
 10
-78.8473
 20
104.0558
 30
0.0
 10
-78.8473
 20
104.0558
 30
0.0
 10
-75.3993
 20
104.0558
 30
0.0
 10
-75.3993
 20
104.0558
 30
0.0
 10
-75.3993
 20
104.0558
 30
0.0
 10
-75.3993
 20
104.0558
 30
0.0
 10
-71.8324
 20
104.879
 30
0.0
 10
-71.8324
 20
104.879
 30
0.0
 10
-71.8324
 20
104.879
 30
0.0
 10
-71.8324
 20
104.879
 30
0.0
 10
-60.1928
 20
103.8812
 30
0.0
 10
-60.1928
 20
103.8812
 30
0.0
 10
-60.1928
 20
103.8812
 30
0.0
 10
-60.1928
 20
103.8812
 30
0.0
 10
-59.099
 20
100.8731
 30
0.0
 10
-59.099
 20
100.8731
 30
0.0
 10
-59.099
 20
100.8731
 30
0.0
 10
-59.099
 20
100.8731
 30
0.0
 10
-58.0636
 20
100.7319
 30
0.0
 10
-58.0636
 20
100.7319
 30
0.0
 10
-58.0636
 20
100.7319
 30
0.0
 10
-58.0636
 20
100.7319
 30
0.0
 10
-58.5199
 20
97.7664
 30
0.0
 10
-58.5199
 20
97.7664
 30
0.0
 10
-58.5199
 20
97.7664
 30
0.0
 10
-58.5199
 20
97.7664
 30
0.0
 10
-55.4784
 20
97.3517
 30
0.0
 10
-55.4784
 20
97.3517
 30
0.0
 10
-55.4784
 20
97.3517
 30
0.0
 10
-52.3815
 20
96.9294
 30
0.0
 10
-49.42
 20
95.7739
 30
0.0
 10
-46.4826
 20
94.7058
 30
0.0
 10
-46.4826
 20
94.7058
 30
0.0
 10
-42.6189
 20
93.3008
 30
0.0
 10
-38.3216
 20
92.5043
 30
0.0
 10
-35.1055
 20
89.9433
 30
0.0
 10
-35.1055
 20
89.9433
 30
0.0
 10
-33.2211
 20
88.4428
 30
0.0
 10
-32.591
 20
85.7048
 30
0.0
 10
-32.1951
 20
83.3287
 30
0.0
 10
-32.1951
 20
83.3287
 30
0.0
 10
-31.6007
 20
79.7619
 30
0.0
 10
-31.4448
 20
76.018
 30
0.0
 10
-32.1951
 20
72.4808
 30
0.0
 10
-32.1951
 20
72.4808
 30
0.0
 10
-32.7194
 20
70.0088
 30
0.0
 10
-34.7138
 20
68.0978
 30
0.0
 10
-35.8993
 20
65.8662
 30
0.0
 10
-35.8993
 20
65.8662
 30
0.0
 10
-37.7128
 20
62.4525
 30
0.0
 10
-39.296
 20
58.9165
 30
0.0
 10
-41.191
 20
55.5475
 30
0.0
 10
-41.191
 20
55.5475
 30
0.0
 10
-43.7644
 20
50.9735
 30
0.0
 10
-47.4659
 20
46.9421
 30
0.0
 10
-49.5385
 20
42.1551
 30
0.0
 10
-49.5385
 20
42.1551
 30
0.0
 10
-49.5385
 20
42.1551
 30
0.0
 10
-46.5015
 20
41.5927
 30
0.0
 10
-46.5015
 20
41.5927
 30
0.0
 10
-46.5015
 20
41.5927
 30
0.0
 10
-46.7837
 20
40.9947
 30
0.0
 10
-47.0378
 20
40.3868
 30
0.0
 10
-47.255
 20
39.7681
 30
0.0
 10
-47.255
 20
39.7681
 30
0.0
 10
-47.1264
 20
39.4358
 30
0.0
 10
-46.7955
 20
38.8979
 30
0.0
 10
-46.6611
 20
38.6647
 30
0.0
 10
-46.6611
 20
38.6647
 30
0.0
 10
-45.7137
 20
37.0216
 30
0.0
 10
-44.9778
 20
35.4237
 30
0.0
 10
-45.404
 20
33.4752
 30
0.0
 10
-45.404
 20
33.4752
 30
0.0
 10
-45.5359
 20
32.872
 30
0.0
 10
-45.7993
 20
32.3113
 30
0.0
 10
-46.1819
 20
31.8264
 30
0.0
 10
-46.1819
 20
31.8264
 30
0.0
 10
-47.0866
 20
30.6799
 30
0.0
 10
-48.2429
 20
30.3275
 30
0.0
 10
-49.5723
 20
29.9687
 30
0.0
 10
-49.5723
 20
29.9687
 30
0.0
 10
-49.6607
 20
29.9449
 30
0.0
 10
-49.7754
 20
29.9166
 30
0.0
 10
-49.882
 20
29.8838
 30
0.0
 10
-49.882
 20
29.8838
 30
0.0
 10
-50.658
 20
28.9002
 30
0.0
 10
-51.977
 20
27.3956
 30
0.0
 10
-52.8793
 20
25.9441
 30
0.0
 10
-52.8793
 20
25.9441
 30
0.0
 10
-51.4416
 20
26.1888
 30
0.0
 10
-50.0059
 20
26.0709
 30
0.0
 10
-48.7751
 20
25.0267
 30
0.0
 10
-48.7751
 20
25.0267
 30
0.0
 10
-48.3099
 20
24.6319
 30
0.0
 10
-47.9051
 20
24.1757
 30
0.0
 10
-47.5639
 20
23.6702
 30
0.0
 10
-47.5639
 20
23.6702
 30
0.0
 10
-47.4313
 20
23.4739
 30
0.0
 10
-47.3111
 20
23.275
 30
0.0
 10
-47.2014
 20
23.0738
 30
0.0
 10
-47.2014
 20
23.0738
 30
0.0
 10
-47.2014
 20
23.0738
 30
0.0
 10
-49.9635
 20
21.89
 30
0.0
 10
-49.9635
 20
21.89
 30
0.0
 10
-49.9635
 20
21.89
 30
0.0
 10
-48.7622
 20
20.098
 30
0.0
 10
-48.8213
 20
17.4341
 30
0.0
 10
-48.0701
 20
15.3307
 30
0.0
 10
-48.0701
 20
15.3307
 30
0.0
 10
-48.0701
 20
15.3307
 30
0.0
 10
-44.6305
 20
8.4516
 30
0.0
 10
-44.6305
 20
8.4516
 30
0.0
 10
-44.6305
 20
8.4516
 30
0.0
 10
-43.534
 20
6.2584
 30
0.0
 10
-41.712
 20
4.5064
 30
0.0
 10
-40.1326
 20
2.6308
 30
0.0
 10
-40.1326
 20
2.6308
 30
0.0
 10
-38.8867
 20
1.1512
 30
0.0
 10
-37.002
 20
0.1407
 30
0.0
 10
-36.1639
 20
-1.6025
 30
0.0
 10
-36.1639
 20
-1.6025
 30
0.0
 10
-34.7361
 20
-4.5723
 30
0.0
 10
-33.0438
 20
-7.8666
 30
0.0
 10
-33.518
 20
-11.1275
 30
0.0
 10
-33.518
 20
-11.1275
 30
0.0
 10
-33.8433
 20
-13.3605
 30
0.0
 10
-36.5666
 20
-14.4303
 30
0.0
 10
-38.1715
 20
-16.0427
 30
0.0
 10
-38.1715
 20
-16.0427
 30
0.0
 10
-38.1715
 20
-16.0427
 30
0.0
 10
-37.1593
 20
-16.6488
 30
0.0
 10
-37.1593
 20
-16.6488
 30
0.0
 10
-37.1593
 20
-16.6488
 30
0.0
 10
-36.4014
 20
-18.1019
 30
0.0
 10
-36.9727
 20
-18.9899
 30
0.0
 10
-39.0365
 20
-19.1208
 30
0.0
 10
-39.0365
 20
-19.1208
 30
0.0
 10
-39.0365
 20
-19.1208
 30
0.0
 10
-51.0194
 20
-13.0069
 30
0.0
 10
-51.0194
 20
-13.0069
 30
0.0
 10
-51.0194
 20
-13.0069
 30
0.0
 10
-51.0194
 20
-13.0069
 30
0.0
 10
-69.3003
 20
-3.7338
 30
0.0
 10
-69.3003
 20
-3.7338
 30
0.0
 10
-69.3003
 20
-3.7338
 30
0.0
 10
-69.3003
 20
-3.7338
 30
0.0
 10
-73.7721
 20
-1.4066
 30
0.0
 10
-73.7721
 20
-1.4066
 30
0.0
 10
-73.7721
 20
-1.4066
 30
0.0
 10
-73.7721
 20
-1.4066
 30
0.0
 10
-78.3385
 20
-8.0026
 30
0.0
 10
-78.3385
 20
-8.0026
 30
0.0
 10
-78.3385
 20
-8.0026
 30
0.0
 10
-78.3385
 20
-8.0026
 30
0.0
 10
-90.5094
 20
-14.088
 30
0.0
 10
-90.5094
 20
-14.088
 30
0.0
 10
-90.5094
 20
-14.088
 30
0.0
 10
-90.5094
 20
-14.088
 30
0.0
 10
-86.5406
 20
-28.1109
 30
0.0
 10
-86.5406
 20
-28.1109
 30
0.0
 10
-86.5406
 20
-28.1109
 30
0.0
 10
-81.9545
 20
-25.8179
 30
0.0
 10
-77.3684
 20
-23.5248
 30
0.0
 10
-72.7823
 20
-21.2318
 30
0.0
 10
-72.7823
 20
-21.2318
 30
0.0
 10
-70.9302
 20
-21.8491
 30
0.0
 10
-69.0781
 20
-22.4665
 30
0.0
 10
-67.226
 20
-23.0838
 30
0.0
 10
-67.226
 20
-23.0838
 30
0.0
 10
-67.226
 20
-23.0838
 30
0.0
 10
-56.1135
 20
-44.5152
 30
0.0
 10
-56.1135
 20
-44.5152
 30
0.0
 10
-56.1135
 20
-44.5152
 30
0.0
 10
-56.1135
 20
-44.5152
 30
0.0
 10
-52.1448
 20
-54.8339
 30
0.0
 10
-52.1448
 20
-54.8339
 30
0.0
 10
-52.1448
 20
-54.8339
 30
0.0
 10
-52.1448
 20
-54.8339
 30
0.0
 10
-52.1447
 20
-59.7286
 30
0.0
 10
-52.1447
 20
-59.7286
 30
0.0
 10
-52.1447
 20
-59.7286
 30
0.0
 10
-52.1447
 20
-59.7286
 30
0.0
 10
-23.966
 20
-90.9491
 30
0.0
 10
-23.966
 20
-90.9491
 30
0.0
 10
-23.966
 20
-90.9491
 30
0.0
 10
-23.966
 20
-90.9491
 30
0.0
 10
-19.2035
 20
-89.6262
 30
0.0
 10
-19.2035
 20
-89.6262
 30
0.0
 10
-19.2035
 20
-89.6262
 30
0.0
 10
-19.2035
 20
-89.6262
 30
0.0
 10
-8.8847
 20
-98.6219
 30
0.0
 10
-8.8847
 20
-98.6219
 30
0.0
 10
-8.8847
 20
-98.6219
 30
0.0
 10
-8.8847
 20
-98.6219
 30
0.0
 10
-8.6201
 20
-103.649
 30
0.0
 10
-8.6201
 20
-103.649
 30
0.0
 10
-8.6201
 20
-103.649
 30
0.0
 10
-8.6201
 20
-103.649
 30
0.0
 10
-14.9701
 20
-117.9365
 30
0.0
 10
-14.9701
 20
-117.9365
 30
0.0
 10
-14.9701
 20
-117.9365
 30
0.0
 10
-19.8208
 20
-120.6706
 30
0.0
 10
-24.3174
 20
-124.1601
 30
0.0
 10
-29.5221
 20
-126.1387
 30
0.0
 10
-29.5221
 20
-126.1387
 30
0.0
 10
-35.1017
 20
-128.2599
 30
0.0
 10
-41.1063
 20
-131.1448
 30
0.0
 10
-46.9846
 20
-130.1074
 30
0.0
 10
-46.9846
 20
-130.1074
 30
0.0
 10
-46.9846
 20
-130.1074
 30
0.0
 10
-55.9804
 20
-128.5199
 30
0.0
 10
-55.9804
 20
-128.5199
 30
0.0
 10
-55.9804
 20
-128.5199
 30
0.0
 10
-58.7279
 20
-142.6502
 30
0.0
 10
-68.623
 20
-173.7385
 30
0.0
 10
-81.9096
 20
-178.2616
 30
0.0
 10
-81.9096
 20
-178.2616
 30
0.0
 10
-81.9096
 20
-178.2616
 30
0.0
 10
-94.345
 20
-182.4949
 30
0.0
 10
-94.345
 20
-182.4949
 30
0.0
 10
-94.345
 20
-182.4949
 30
0.0
 10
-94.345
 20
-182.4949
 30
0.0
 10
-108.3679
 20
-179.3199
 30
0.0
 10
-108.3679
 20
-179.3199
 30
0.0
 10
-108.3679
 20
-179.3199
 30
0.0
 10
-108.3679
 20
-179.3199
 30
0.0
 10
-114.9825
 20
-175.8804
 30
0.0
 10
-114.9825
 20
-175.8804
 30
0.0
 10
-114.9825
 20
-175.8804
 30
0.0
 10
-114.9825
 20
-175.8804
 30
0.0
 10
-128.2117
 20
-171.6471
 30
0.0
 10
-128.2117
 20
-171.6471
 30
0.0
 10
-128.2117
 20
-171.6471
 30
0.0
 10
-138.3049
 20
-164.4411
 30
0.0
 10
-141.096
 20
-158.1683
 30
0.0
 10
-138.795
 20
-145.7179
 30
0.0
 10
-138.795
 20
-145.7179
 30
0.0
 10
-138.4554
 20
-143.8803
 30
0.0
 10
-140.6471
 20
-142.295
 30
0.0
 10
-140.6471
 20
-140.4263
 30
0.0
 10
-140.6471
 20
-140.4263
 30
0.0
 10
-140.6471
 20
-140.4263
 30
0.0
 10
-140.6471
 20
-134.3408
 30
0.0
 10
-140.6471
 20
-134.3408
 30
0.0
 10
-140.6471
 20
-134.3408
 30
0.0
 10
-140.6471
 20
-134.3408
 30
0.0
 10
-156.5221
 20
-141.7492
 30
0.0
 10
-156.5221
 20
-141.7492
 30
0.0
 10
-156.5221
 20
-141.7492
 30
0.0
 10
-156.2575
 20
-148.5401
 30
0.0
 10
-155.1338
 20
-155.352
 30
0.0
 10
-155.7284
 20
-162.122
 30
0.0
 10
-155.7284
 20
-162.122
 30
0.0
 10
-156.29
 20
-168.5162
 30
0.0
 10
-158.2729
 20
-174.7148
 30
0.0
 10
-159.9617
 20
-180.9074
 30
0.0
 10
-159.9617
 20
-180.9074
 30
0.0
 10
-160.6597
 20
-183.4671
 30
0.0
 10
-160.6269
 20
-186.9022
 30
0.0
 10
-162.8721
 20
-188.3158
 30
0.0
 10
-162.8721
 20
-188.3158
 30
0.0
 10
-168.371
 20
-191.7782
 30
0.0
 10
-174.895
 20
-194.3242
 30
0.0
 10
-181.3927
 20
-194.401
 30
0.0
 10
-181.3927
 20
-194.401
 30
0.0
 10
-190.3176
 20
-194.5065
 30
0.0
 10
-199.8153
 20
-193.2349
 30
0.0
 10
-207.5865
 20
-188.8447
 30
0.0
 10
-207.5865
 20
-188.8447
 30
0.0
 10
-228.7133
 20
-176.9096
 30
0.0
 10
-249.5827
 20
-115.9856
 30
0.0
 10
-242.9097
 20
-91.3463
 30
0.0
  0
SPLINE
  5
68
330
1F
100
AcDbEntity
  8
Layer 1
 62
   250
100
AcDbSpline
210
0.0
220
0.0
230
1.0
 70
    11
 71
     3
 72
    88
 73
    84
 74
     0
 42
0.0000000001
 43
0.0000000001
 40
0.0
 40
0.0
 40
0.0
 40
0.0
 40
0.0454545454545455
 40
0.0454545454545455
 40
0.0454545454545455
 40
0.0454545454545455
 40
0.0909090909090909
 40
0.0909090909090909
 40
0.0909090909090909
 40
0.0909090909090909
 40
0.1363636363636364
 40
0.1363636363636364
 40
0.1363636363636364
 40
0.1363636363636364
 40
0.1818181818181818
 40
0.1818181818181818
 40
0.1818181818181818
 40
0.1818181818181818
 40
0.2272727272727273
 40
0.2272727272727273
 40
0.2272727272727273
 40
0.2272727272727273
 40
0.2727272727272727
 40
0.2727272727272727
 40
0.2727272727272727
 40
0.2727272727272727
 40
0.3181818181818182
 40
0.3181818181818182
 40
0.3181818181818182
 40
0.3181818181818182
 40
0.3636363636363636
 40
0.3636363636363636
 40
0.3636363636363636
 40
0.3636363636363636
 40
0.4090909090909091
 40
0.4090909090909091
 40
0.4090909090909091
 40
0.4090909090909091
 40
0.4545454545454545
 40
0.4545454545454545
 40
0.4545454545454545
 40
0.4545454545454545
 40
0.5
 40
0.5
 40
0.5
 40
0.5
 40
0.5454545454545454
 40
0.5454545454545454
 40
0.5454545454545454
 40
0.5454545454545454
 40
0.5909090909090909
 40
0.5909090909090909
 40
0.5909090909090909
 40
0.5909090909090909
 40
0.6363636363636364
 40
0.6363636363636364
 40
0.6363636363636364
 40
0.6363636363636364
 40
0.6818181818181818
 40
0.6818181818181818
 40
0.6818181818181818
 40
0.6818181818181818
 40
0.7272727272727273
 40
0.7272727272727273
 40
0.7272727272727273
 40
0.7272727272727273
 40
0.7727272727272727
 40
0.7727272727272727
 40
0.7727272727272727
 40
0.7727272727272727
 40
0.8181818181818182
 40
0.8181818181818182
 40
0.8181818181818182
 40
0.8181818181818182
 40
0.8636363636363636
 40
0.8636363636363636
 40
0.8636363636363636
 40
0.8636363636363636
 40
0.9090909090909091
 40
0.9090909090909091
 40
0.9090909090909091
 40
0.9090909090909091
 40
1.0
 40
1.0
 40
1.0
 40
1.0
 10
-156.4345
 20
11.8989
 30
0.0
 10
-156.8023
 20
11.7848
 30
0.0
 10
-157.1748
 20
11.6891
 30
0.0
 10
-157.5526
 20
11.6133
 30
0.0
 10
-157.5526
 20
11.6133
 30
0.0
 10
-160.2291
 20
11.0766
 30
0.0
 10
-163.1148
 20
11.5362
 30
0.0
 10
-166.2904
 20
13.438
 30
0.0
 10
-166.2904
 20
13.438
 30
0.0
 10
-167.6504
 20
14.2524
 30
0.0
 10
-171.0347
 20
14.6756
 30
0.0
 10
-174.5248
 20
14.5957
 30
0.0
 10
-174.5248
 20
14.5957
 30
0.0
 10
-177.6869
 20
14.5233
 30
0.0
 10
-180.8657
 20
14.0296
 30
0.0
 10
-182.6166
 20
13.0295
 30
0.0
 10
-182.6166
 20
13.0295
 30
0.0
 10
-185.8729
 20
11.1696
 30
0.0
 10
-188.4305
 20
10.0774
 30
0.0
 10
-190.9622
 20
9.8186
 30
0.0
 10
-190.9622
 20
9.8186
 30
0.0
 10
-193.5398
 20
9.5551
 30
0.0
 10
-196.0075
 20
10.1537
 30
0.0
 10
-199.0362
 20
11.6831
 30
0.0
 10
-199.0362
 20
11.6831
 30
0.0
 10
-202.1459
 20
13.2534
 30
0.0
 10
-206.2595
 20
11.5328
 30
0.0
 10
-209.9136
 20
10.0042
 30
0.0
 10
-209.9136
 20
10.0042
 30
0.0
 10
-210.6519
 20
9.6953
 30
0.0
 10
-210.8329
 20
9.5044
 30
0.0
 10
-211.7146
 20
9.2655
 30
0.0
 10
-211.7146
 20
9.2655
 30
0.0
 10
-211.7377
 20
9.2242
 30
0.0
 10
-211.5574
 20
7.2624
 30
0.0
 10
-211.6255
 20
6.8534
 30
0.0
 10
-211.6255
 20
6.8534
 30
0.0
 10
-211.6255
 20
6.8534
 30
0.0
 10
-213.5943
 20
7.1816
 30
0.0
 10
-213.5943
 20
7.1816
 30
0.0
 10
-213.5943
 20
7.1816
 30
0.0
 10
-213.556
 20
7.4115
 30
0.0
 10
-213.584
 20
7.7803
 30
0.0
 10
-213.612
 20
8.1489
 30
0.0
 10
-213.612
 20
8.1489
 30
0.0
 10
-213.705
 20
9.3724
 30
0.0
 10
-213.7939
 20
10.5852
 30
0.0
 10
-212.4479
 20
11.1183
 30
0.0
 10
-212.4479
 20
11.1183
 30
0.0
 10
-212.4479
 20
11.1183
 30
0.0
 10
-212.4479
 20
11.1222
 30
0.0
 10
-212.4479
 20
11.1222
 30
0.0
 10
-212.4479
 20
11.1222
 30
0.0
 10
-208.1337
 20
12.8313
 30
0.0
 10
-202.6837
 20
15.76
 30
0.0
 10
-198.1378
 20
13.4643
 30
0.0
 10
-198.1378
 20
13.4643
 30
0.0
 10
-195.4647
 20
12.1145
 30
0.0
 10
-193.3317
 20
11.5816
 30
0.0
 10
-191.1654
 20
11.803
 30
0.0
 10
-191.1654
 20
11.803
 30
0.0
 10
-188.9531
 20
12.0291
 30
0.0
 10
-186.6224
 20
13.0383
 30
0.0
 10
-183.601
 20
14.7639
 30
0.0
 10
-183.601
 20
14.7639
 30
0.0
 10
-181.5506
 20
15.935
 30
0.0
 10
-178.0179
 20
16.5088
 30
0.0
 10
-174.5638
 20
16.5879
 30
0.0
 10
-174.5638
 20
16.5879
 30
0.0
 10
-170.7454
 20
16.6753
 30
0.0
 10
-166.9357
 20
16.1482
 30
0.0
 10
-165.267
 20
15.149
 30
0.0
 10
-165.267
 20
15.149
 30
0.0
 10
-162.5651
 20
13.531
 30
0.0
 10
-160.151
 20
13.1316
 30
0.0
 10
-157.9432
 20
13.5743
 30
0.0
 10
-157.9432
 20
13.5743
 30
0.0
 10
-157.2998
 20
13.7033
 30
0.0
 10
-156.6366
 20
13.871
 30
0.0
 10
-156.0183
 20
14.1341
 30
0.0
 10
-156.0183
 20
14.1341
 30
0.0
 10
-154.809
 20
14.521
 30
0.0
 10
-153.1792
 20
14.8075
 30
0.0
 10
-156.4345
 20
11.8989
 30
0.0
  0
SPLINE
  5
69
330
1F
100
AcDbEntity
  8
Layer 1
 62
   250
100
AcDbSpline
210
0.0
220
0.0
230
1.0
 70
    11
 71
     3
 72
    32
 73
    28
 74
     0
 42
0.0000000001
 43
0.0000000001
 40
0.0
 40
0.0
 40
0.0
 40
0.0
 40
0.125
 40
0.125
 40
0.125
 40
0.125
 40
0.25
 40
0.25
 40
0.25
 40
0.25
 40
0.375
 40
0.375
 40
0.375
 40
0.375
 40
0.5
 40
0.5
 40
0.5
 40
0.5
 40
0.625
 40
0.625
 40
0.625
 40
0.625
 40
0.75
 40
0.75
 40
0.75
 40
0.75
 40
1.0
 40
1.0
 40
1.0
 40
1.0
 10
-151.0371
 20
15.1633
 30
0.0
 10
-151.0371
 20
15.1633
 30
0.0
 10
-150.8128
 20
15.5979
 30
0.0
 10
-150.8128
 20
15.5979
 30
0.0
 10
-150.8128
 20
15.5979
 30
0.0
 10
-150.8128
 20
15.5979
 30
0.0
 10
-148.7586
 20
14.9273
 30
0.0
 10
-148.7586
 20
14.9273
 30
0.0
 10
-148.7586
 20
14.9273
 30
0.0
 10
-148.9216
 20
13.6129
 30
0.0
 10
-149.1883
 20
12.2225
 30
0.0
 10
-149.6478
 20
10.7006
 30
0.0
 10
-149.6478
 20
10.7006
 30
0.0
 10
-149.7654
 20
10.3111
 30
0.0
 10
-150.0232
 20
9.703
 30
0.0
 10
-150.3794
 20
8.9311
 30
0.0
 10
-150.3794
 20
8.9311
 30
0.0
 10
-150.3794
 20
8.9311
 30
0.0
 10
-152.6079
 20
9.9623
 30
0.0
 10
-152.6079
 20
9.9623
 30
0.0
 10
-152.6079
 20
9.9623
 30
0.0
 10
-152.2591
 20
10.8027
 30
0.0
 10
-151.988
 20
11.5183
 30
0.0
 10
-151.702
 20
12.4391
 30
0.0
 10
-151.702
 20
12.4391
 30
0.0
 10
-151.4132
 20
13.3684
 30
0.0
 10
-151.1776
 20
14.3004
 30
0.0
 10
-151.0371
 20
15.1633
 30
0.0
  0
SPLINE
  5
6A
330
1F
100
AcDbEntity
  8
Layer 1
 62
   250
100
AcDbSpline
210
0.0
220
0.0
230
1.0
 70
    11
 71
     3
 72
   644
 73
   640
 74
     0
 42
0.0000000001
 43
0.0000000001
 40
0.0
 40
0.0
 40
0.0
 40
0.0
 40
0.0062111801242236
 40
0.0062111801242236
 40
0.0062111801242236
 40
0.0062111801242236
 40
0.0124223602484472
 40
0.0124223602484472
 40
0.0124223602484472
 40
0.0124223602484472
 40
0.0186335403726708
 40
0.0186335403726708
 40
0.0186335403726708
 40
0.0186335403726708
 40
0.0248447204968944
 40
0.0248447204968944
 40
0.0248447204968944
 40
0.0248447204968944
 40
0.031055900621118
 40
0.031055900621118
 40
0.031055900621118
 40
0.031055900621118
 40
0.0372670807453416
 40
0.0372670807453416
 40
0.0372670807453416
 40
0.0372670807453416
 40
0.0434782608695652
 40
0.0434782608695652
 40
0.0434782608695652
 40
0.0434782608695652
 40
0.0496894409937888
 40
0.0496894409937888
 40
0.0496894409937888
 40
0.0496894409937888
 40
0.0559006211180124
 40
0.0559006211180124
 40
0.0559006211180124
 40
0.0559006211180124
 40
0.062111801242236
 40
0.062111801242236
 40
0.062111801242236
 40
0.062111801242236
 40
0.0683229813664596
 40
0.0683229813664596
 40
0.0683229813664596
 40
0.0683229813664596
 40
0.0745341614906832
 40
0.0745341614906832
 40
0.0745341614906832
 40
0.0745341614906832
 40
0.0807453416149068
 40
0.0807453416149068
 40
0.0807453416149068
 40
0.0807453416149068
 40
0.0869565217391304
 40
0.0869565217391304
 40
0.0869565217391304
 40
0.0869565217391304
 40
0.093167701863354
 40
0.093167701863354
 40
0.093167701863354
 40
0.093167701863354
 40
0.0993788819875776
 40
0.0993788819875776
 40
0.0993788819875776
 40
0.0993788819875776
 40
0.1055900621118012
 40
0.1055900621118012
 40
0.1055900621118012
 40
0.1055900621118012
 40
0.1118012422360248
 40
0.1118012422360248
 40
0.1118012422360248
 40
0.1118012422360248
 40
0.1180124223602484
 40
0.1180124223602484
 40
0.1180124223602484
 40
0.1180124223602484
 40
0.124223602484472
 40
0.124223602484472
 40
0.124223602484472
 40
0.124223602484472
 40
0.1304347826086956
 40
0.1304347826086956
 40
0.1304347826086956
 40
0.1304347826086956
 40
0.1366459627329193
 40
0.1366459627329193
 40
0.1366459627329193
 40
0.1366459627329193
 40
0.1428571428571428
 40
0.1428571428571428
 40
0.1428571428571428
 40
0.1428571428571428
 40
0.1490683229813665
 40
0.1490683229813665
 40
0.1490683229813665
 40
0.1490683229813665
 40
0.15527950310559
 40
0.15527950310559
 40
0.15527950310559
 40
0.15527950310559
 40
0.1614906832298137
 40
0.1614906832298137
 40
0.1614906832298137
 40
0.1614906832298137
 40
0.1677018633540373
 40
0.1677018633540373
 40
0.1677018633540373
 40
0.1677018633540373
 40
0.1739130434782609
 40
0.1739130434782609
 40
0.1739130434782609
 40
0.1739130434782609
 40
0.1801242236024845
 40
0.1801242236024845
 40
0.1801242236024845
 40
0.1801242236024845
 40
0.1863354037267081
 40
0.1863354037267081
 40
0.1863354037267081
 40
0.1863354037267081
 40
0.1925465838509317
 40
0.1925465838509317
 40
0.1925465838509317
 40
0.1925465838509317
 40
0.1987577639751553
 40
0.1987577639751553
 40
0.1987577639751553
 40
0.1987577639751553
 40
0.2049689440993789
 40
0.2049689440993789
 40
0.2049689440993789
 40
0.2049689440993789
 40
0.2111801242236025
 40
0.2111801242236025
 40
0.2111801242236025
 40
0.2111801242236025
 40
0.2173913043478261
 40
0.2173913043478261
 40
0.2173913043478261
 40
0.2173913043478261
 40
0.2236024844720497
 40
0.2236024844720497
 40
0.2236024844720497
 40
0.2236024844720497
 40
0.2298136645962733
 40
0.2298136645962733
 40
0.2298136645962733
 40
0.2298136645962733
 40
0.2360248447204969
 40
0.2360248447204969
 40
0.2360248447204969
 40
0.2360248447204969
 40
0.2422360248447205
 40
0.2422360248447205
 40
0.2422360248447205
 40
0.2422360248447205
 40
0.2484472049689441
 40
0.2484472049689441
 40
0.2484472049689441
 40
0.2484472049689441
 40
0.2546583850931677
 40
0.2546583850931677
 40
0.2546583850931677
 40
0.2546583850931677
 40
0.2608695652173913
 40
0.2608695652173913
 40
0.2608695652173913
 40
0.2608695652173913
 40
0.2670807453416149
 40
0.2670807453416149
 40
0.2670807453416149
 40
0.2670807453416149
 40
0.2732919254658385
 40
0.2732919254658385
 40
0.2732919254658385
 40
0.2732919254658385
 40
0.2795031055900621
 40
0.2795031055900621
 40
0.2795031055900621
 40
0.2795031055900621
 40
0.2857142857142857
 40
0.2857142857142857
 40
0.2857142857142857
 40
0.2857142857142857
 40
0.2919254658385093
 40
0.2919254658385093
 40
0.2919254658385093
 40
0.2919254658385093
 40
0.2981366459627329
 40
0.2981366459627329
 40
0.2981366459627329
 40
0.2981366459627329
 40
0.3043478260869565
 40
0.3043478260869565
 40
0.3043478260869565
 40
0.3043478260869565
 40
0.3105590062111801
 40
0.3105590062111801
 40
0.3105590062111801
 40
0.3105590062111801
 40
0.3167701863354037
 40
0.3167701863354037
 40
0.3167701863354037
 40
0.3167701863354037
 40
0.3229813664596273
 40
0.3229813664596273
 40
0.3229813664596273
 40
0.3229813664596273
 40
0.3291925465838509
 40
0.3291925465838509
 40
0.3291925465838509
 40
0.3291925465838509
 40
0.3354037267080746
 40
0.3354037267080746
 40
0.3354037267080746
 40
0.3354037267080746
 40
0.3416149068322981
 40
0.3416149068322981
 40
0.3416149068322981
 40
0.3416149068322981
 40
0.3478260869565217
 40
0.3478260869565217
 40
0.3478260869565217
 40
0.3478260869565217
 40
0.3540372670807453
 40
0.3540372670807453
 40
0.3540372670807453
 40
0.3540372670807453
 40
0.360248447204969
 40
0.360248447204969
 40
0.360248447204969
 40
0.360248447204969
 40
0.3664596273291926
 40
0.3664596273291926
 40
0.3664596273291926
 40
0.3664596273291926
 40
0.3726708074534161
 40
0.3726708074534161
 40
0.3726708074534161
 40
0.3726708074534161
 40
0.3788819875776397
 40
0.3788819875776397
 40
0.3788819875776397
 40
0.3788819875776397
 40
0.3850931677018634
 40
0.3850931677018634
 40
0.3850931677018634
 40
0.3850931677018634
 40
0.391304347826087
 40
0.391304347826087
 40
0.391304347826087
 40
0.391304347826087
 40
0.3975155279503105
 40
0.3975155279503105
 40
0.3975155279503105
 40
0.3975155279503105
 40
0.4037267080745341
 40
0.4037267080745341
 40
0.4037267080745341
 40
0.4037267080745341
 40
0.4099378881987578
 40
0.4099378881987578
 40
0.4099378881987578
 40
0.4099378881987578
 40
0.4161490683229814
 40
0.4161490683229814
 40
0.4161490683229814
 40
0.4161490683229814
 40
0.422360248447205
 40
0.422360248447205
 40
0.422360248447205
 40
0.422360248447205
 40
0.4285714285714285
 40
0.4285714285714285
 40
0.4285714285714285
 40
0.4285714285714285
 40
0.4347826086956522
 40
0.4347826086956522
 40
0.4347826086956522
 40
0.4347826086956522
 40
0.4409937888198758
 40
0.4409937888198758
 40
0.4409937888198758
 40
0.4409937888198758
 40
0.4472049689440994
 40
0.4472049689440994
 40
0.4472049689440994
 40
0.4472049689440994
 40
0.453416149068323
 40
0.453416149068323
 40
0.453416149068323
 40
0.453416149068323
 40
0.4596273291925466
 40
0.4596273291925466
 40
0.4596273291925466
 40
0.4596273291925466
 40
0.4658385093167702
 40
0.4658385093167702
 40
0.4658385093167702
 40
0.4658385093167702
 40
0.4720496894409938
 40
0.4720496894409938
 40
0.4720496894409938
 40
0.4720496894409938
 40
0.4782608695652174
 40
0.4782608695652174
 40
0.4782608695652174
 40
0.4782608695652174
 40
0.484472049689441
 40
0.484472049689441
 40
0.484472049689441
 40
0.484472049689441
 40
0.4906832298136646
 40
0.4906832298136646
 40
0.4906832298136646
 40
0.4906832298136646
 40
0.4968944099378882
 40
0.4968944099378882
 40
0.4968944099378882
 40
0.4968944099378882
 40
0.5031055900621118
 40
0.5031055900621118
 40
0.5031055900621118
 40
0.5031055900621118
 40
0.5093167701863354
 40
0.5093167701863354
 40
0.5093167701863354
 40
0.5093167701863354
 40
0.515527950310559
 40
0.515527950310559
 40
0.515527950310559
 40
0.515527950310559
 40
0.5217391304347826
 40
0.5217391304347826
 40
0.5217391304347826
 40
0.5217391304347826
 40
0.5279503105590062
 40
0.5279503105590062
 40
0.5279503105590062
 40
0.5279503105590062
 40
0.5341614906832298
 40
0.5341614906832298
 40
0.5341614906832298
 40
0.5341614906832298
 40
0.5403726708074534
 40
0.5403726708074534
 40
0.5403726708074534
 40
0.5403726708074534
 40
0.546583850931677
 40
0.546583850931677
 40
0.546583850931677
 40
0.546583850931677
 40
0.5527950310559007
 40
0.5527950310559007
 40
0.5527950310559007
 40
0.5527950310559007
 40
0.5590062111801242
 40
0.5590062111801242
 40
0.5590062111801242
 40
0.5590062111801242
 40
0.5652173913043478
 40
0.5652173913043478
 40
0.5652173913043478
 40
0.5652173913043478
 40
0.5714285714285714
 40
0.5714285714285714
 40
0.5714285714285714
 40
0.5714285714285714
 40
0.577639751552795
 40
0.577639751552795
 40
0.577639751552795
 40
0.577639751552795
 40
0.5838509316770186
 40
0.5838509316770186
 40
0.5838509316770186
 40
0.5838509316770186
 40
0.5900621118012422
 40
0.5900621118012422
 40
0.5900621118012422
 40
0.5900621118012422
 40
0.5962732919254659
 40
0.5962732919254659
 40
0.5962732919254659
 40
0.5962732919254659
 40
0.6024844720496895
 40
0.6024844720496895
 40
0.6024844720496895
 40
0.6024844720496895
 40
0.6086956521739131
 40
0.6086956521739131
 40
0.6086956521739131
 40
0.6086956521739131
 40
0.6149068322981367
 40
0.6149068322981367
 40
0.6149068322981367
 40
0.6149068322981367
 40
0.6211180124223602
 40
0.6211180124223602
 40
0.6211180124223602
 40
0.6211180124223602
 40
0.6273291925465838
 40
0.6273291925465838
 40
0.6273291925465838
 40
0.6273291925465838
 40
0.6335403726708074
 40
0.6335403726708074
 40
0.6335403726708074
 40
0.6335403726708074
 40
0.639751552795031
 40
0.639751552795031
 40
0.639751552795031
 40
0.639751552795031
 40
0.6459627329192547
 40
0.6459627329192547
 40
0.6459627329192547
 40
0.6459627329192547
 40
0.6521739130434783
 40
0.6521739130434783
 40
0.6521739130434783
 40
0.6521739130434783
 40
0.6583850931677019
 40
0.6583850931677019
 40
0.6583850931677019
 40
0.6583850931677019
 40
0.6645962732919255
 40
0.6645962732919255
 40
0.6645962732919255
 40
0.6645962732919255
 40
0.6708074534161491
 40
0.6708074534161491
 40
0.6708074534161491
 40
0.6708074534161491
 40
0.6770186335403726
 40
0.6770186335403726
 40
0.6770186335403726
 40
0.6770186335403726
 40
0.6832298136645962
 40
0.6832298136645962
 40
0.6832298136645962
 40
0.6832298136645962
 40
0.6894409937888198
 40
0.6894409937888198
 40
0.6894409937888198
 40
0.6894409937888198
 40
0.6956521739130435
 40
0.6956521739130435
 40
0.6956521739130435
 40
0.6956521739130435
 40
0.7018633540372671
 40
0.7018633540372671
 40
0.7018633540372671
 40
0.7018633540372671
 40
0.7080745341614907
 40
0.7080745341614907
 40
0.7080745341614907
 40
0.7080745341614907
 40
0.7142857142857143
 40
0.7142857142857143
 40
0.7142857142857143
 40
0.7142857142857143
 40
0.7204968944099379
 40
0.7204968944099379
 40
0.7204968944099379
 40
0.7204968944099379
 40
0.7267080745341615
 40
0.7267080745341615
 40
0.7267080745341615
 40
0.7267080745341615
 40
0.7329192546583851
 40
0.7329192546583851
 40
0.7329192546583851
 40
0.7329192546583851
 40
0.7391304347826086
 40
0.7391304347826086
 40
0.7391304347826086
 40
0.7391304347826086
 40
0.7453416149068323
 40
0.7453416149068323
 40
0.7453416149068323
 40
0.7453416149068323
 40
0.7515527950310559
 40
0.7515527950310559
 40
0.7515527950310559
 40
0.7515527950310559
 40
0.7577639751552795
 40
0.7577639751552795
 40
0.7577639751552795
 40
0.7577639751552795
 40
0.7639751552795031
 40
0.7639751552795031
 40
0.7639751552795031
 40
0.7639751552795031
 40
0.7701863354037267
 40
0.7701863354037267
 40
0.7701863354037267
 40
0.7701863354037267
 40
0.7763975155279503
 40
0.7763975155279503
 40
0.7763975155279503
 40
0.7763975155279503
 40
0.782608695652174
 40
0.782608695652174
 40
0.782608695652174
 40
0.782608695652174
 40
0.7888198757763976
 40
0.7888198757763976
 40
0.7888198757763976
 40
0.7888198757763976
 40
0.7950310559006211
 40
0.7950310559006211
 40
0.7950310559006211
 40
0.7950310559006211
 40
0.8012422360248447
 40
0.8012422360248447
 40
0.8012422360248447
 40
0.8012422360248447
 40
0.8074534161490683
 40
0.8074534161490683
 40
0.8074534161490683
 40
0.8074534161490683
 40
0.8136645962732919
 40
0.8136645962732919
 40
0.8136645962732919
 40
0.8136645962732919
 40
0.8198757763975155
 40
0.8198757763975155
 40
0.8198757763975155
 40
0.8198757763975155
 40
0.8260869565217391
 40
0.8260869565217391
 40
0.8260869565217391
 40
0.8260869565217391
 40
0.8322981366459627
 40
0.8322981366459627
 40
0.8322981366459627
 40
0.8322981366459627
 40
0.8385093167701864
 40
0.8385093167701864
 40
0.8385093167701864
 40
0.8385093167701864
 40
0.84472049689441
 40
0.84472049689441
 40
0.84472049689441
 40
0.84472049689441
 40
0.8509316770186336
 40
0.8509316770186336
 40
0.8509316770186336
 40
0.8509316770186336
 40
0.8571428571428571
 40
0.8571428571428571
 40
0.8571428571428571
 40
0.8571428571428571
 40
0.8633540372670807
 40
0.8633540372670807
 40
0.8633540372670807
 40
0.8633540372670807
 40
0.8695652173913043
 40
0.8695652173913043
 40
0.8695652173913043
 40
0.8695652173913043
 40
0.8757763975155279
 40
0.8757763975155279
 40
0.8757763975155279
 40
0.8757763975155279
 40
0.8819875776397516
 40
0.8819875776397516
 40
0.8819875776397516
 40
0.8819875776397516
 40
0.8881987577639752
 40
0.8881987577639752
 40
0.8881987577639752
 40
0.8881987577639752
 40
0.8944099378881988
 40
0.8944099378881988
 40
0.8944099378881988
 40
0.8944099378881988
 40
0.9006211180124224
 40
0.9006211180124224
 40
0.9006211180124224
 40
0.9006211180124224
 40
0.906832298136646
 40
0.906832298136646
 40
0.906832298136646
 40
0.906832298136646
 40
0.9130434782608695
 40
0.9130434782608695
 40
0.9130434782608695
 40
0.9130434782608695
 40
0.9192546583850931
 40
0.9192546583850931
 40
0.9192546583850931
 40
0.9192546583850931
 40
0.9254658385093167
 40
0.9254658385093167
 40
0.9254658385093167
 40
0.9254658385093167
 40
0.9316770186335404
 40
0.9316770186335404
 40
0.9316770186335404
 40
0.9316770186335404
 40
0.937888198757764
 40
0.937888198757764
 40
0.937888198757764
 40
0.937888198757764
 40
0.9440993788819876
 40
0.9440993788819876
 40
0.9440993788819876
 40
0.9440993788819876
 40
0.9503105590062112
 40
0.9503105590062112
 40
0.9503105590062112
 40
0.9503105590062112
 40
0.9565217391304348
 40
0.9565217391304348
 40
0.9565217391304348
 40
0.9565217391304348
 40
0.9627329192546584
 40
0.9627329192546584
 40
0.9627329192546584
 40
0.9627329192546584
 40
0.968944099378882
 40
0.968944099378882
 40
0.968944099378882
 40
0.968944099378882
 40
0.9751552795031055
 40
0.9751552795031055
 40
0.9751552795031055
 40
0.9751552795031055
 40
0.9813664596273292
 40
0.9813664596273292
 40
0.9813664596273292
 40
0.9813664596273292
 40
0.9875776397515528
 40
0.9875776397515528
 40
0.9875776397515528
 40
0.9875776397515528
 40
1.0
 40
1.0
 40
1.0
 40
1.0
 10
-100.3657
 20
145.0955
 30
0.0
 10
-100.4689
 20
143.5282
 30
0.0
 10
-101.172
 20
142.1136
 30
0.0
 10
-103.0927
 20
140.0415
 30
0.0
 10
-103.0927
 20
140.0415
 30
0.0
 10
-105.8596
 20
137.0563
 30
0.0
 10
-104.4836
 20
129.2315
 30
0.0
 10
-104.4836
 20
124.9375
 30
0.0
 10
-104.4836
 20
124.9375
 30
0.0
 10
-104.4836
 20
116.8641
 30
0.0
 10
-108.1405
 20
119.1145
 30
0.0
 10
-108.4607
 20
112.4489
 30
0.0
 10
-108.4607
 20
112.4489
 30
0.0
 10
-109.4605
 20
112.3782
 30
0.0
 10
-110.622
 20
112.0877
 30
0.0
 10
-111.8502
 20
111.7804
 30
0.0
 10
-111.8502
 20
111.7804
 30
0.0
 10
-112.5773
 20
111.5985
 30
0.0
 10
-113.338
 20
111.4082
 30
0.0
 10
-114.0758
 20
111.2629
 30
0.0
 10
-114.0758
 20
111.2629
 30
0.0
 10
-114.2019
 20
112.2668
 30
0.0
 10
-114.2732
 20
113.4901
 30
0.0
 10
-114.2732
 20
114.974
 30
0.0
 10
-114.2732
 20
114.974
 30
0.0
 10
-114.2732
 20
123.6175
 30
0.0
 10
-109.3675
 20
123.3272
 30
0.0
 10
-109.7753
 20
128.4905
 30
0.0
 10
-109.7753
 20
128.4905
 30
0.0
 10
-112.5923
 20
130.1552
 30
0.0
 10
-116.4244
 20
126.0306
 30
0.0
 10
-116.5222
 20
129.7907
 30
0.0
 10
-116.5222
 20
129.7907
 30
0.0
 10
-116.7267
 20
137.6554
 30
0.0
 10
-113.2877
 20
136.8492
 30
0.0
 10
-113.7213
 20
140.374
 30
0.0
 10
-113.7213
 20
140.374
 30
0.0
 10
-114.0988
 20
143.4418
 30
0.0
 10
-115.088
 20
143.7751
 30
0.0
 10
-115.4557
 20
147.1463
 30
0.0
 10
-115.4557
 20
147.1463
 30
0.0
 10
-117.0551
 20
147.3352
 30
0.0
 10
-118.4744
 20
147.4122
 30
0.0
 10
-119.2551
 20
147.1419
 30
0.0
 10
-119.2551
 20
147.1419
 30
0.0
 10
-119.8062
 20
145.5499
 30
0.0
 10
-126.0985
 20
143.2185
 30
0.0
 10
-128.0317
 20
143.2185
 30
0.0
 10
-128.0317
 20
143.2185
 30
0.0
 10
-128.0317
 20
145.7318
 30
0.0
 10
-125.7372
 20
148.0781
 30
0.0
 10
-125.3179
 20
149.9011
 30
0.0
 10
-125.3179
 20
149.9011
 30
0.0
 10
-124.2519
 20
154.5351
 30
0.0
 10
-124.5921
 20
155.4052
 30
0.0
 10
-124.5921
 20
160.1519
 30
0.0
 10
-124.5921
 20
160.1519
 30
0.0
 10
-125.7554
 20
160.4202
 30
0.0
 10
-131.7982
 20
162.8265
 30
0.0
 10
-132.4843
 20
164.5591
 30
0.0
 10
-132.4843
 20
164.5591
 30
0.0
 10
-134.4387
 20
169.4948
 30
0.0
 10
-136.477
 20
167.3483
 30
0.0
 10
-136.2111
 20
170.1833
 30
0.0
 10
-136.2111
 20
170.1833
 30
0.0
 10
-135.6076
 20
170.1833
 30
0.0
 10
-131.0846
 20
166.8524
 30
0.0
 10
-130.413
 20
166.26
 30
0.0
 10
-130.413
 20
166.26
 30
0.0
 10
-126.979
 20
163.231
 30
0.0
 10
-124.182
 20
166.215
 30
0.0
 10
-121.6817
 20
164.3398
 30
0.0
 10
-121.6817
 20
164.3398
 30
0.0
 10
-120.7771
 20
164.5943
 30
0.0
 10
-118.515
 20
161.1995
 30
0.0
 10
-117.9095
 20
160.3937
 30
0.0
 10
-117.9095
 20
160.3937
 30
0.0
 10
-115.8199
 20
157.6131
 30
0.0
 10
-116.0845
 20
156.2182
 30
0.0
 10
-115.687
 20
155.6312
 30
0.0
 10
-115.687
 20
155.6312
 30
0.0
 10
-113.1163
 20
151.8351
 30
0.0
 10
-115.0477
 20
150.5199
 30
0.0
 10
-113.3133
 20
149.3266
 30
0.0
 10
-113.3133
 20
149.3266
 30
0.0
 10
-108.904
 20
148.8129
 30
0.0
 10
-108.8233
 20
152.8151
 30
0.0
 10
-108.4072
 20
154.5729
 30
0.0
 10
-108.4072
 20
154.5729
 30
0.0
 10
-107.2077
 20
154.8498
 30
0.0
 10
-105.7662
 20
154.4057
 30
0.0
 10
-104.4519
 20
154.7811
 30
0.0
 10
-104.4519
 20
154.7811
 30
0.0
 10
-104.4587
 20
155.0691
 30
0.0
 10
-104.4691
 20
155.3802
 30
0.0
 10
-104.4836
 20
155.7199
 30
0.0
 10
-104.4836
 20
155.7199
 30
0.0
 10
-104.4976
 20
156.0475
 30
0.0
 10
-104.2285
 20
156.4668
 30
0.0
 10
-103.9147
 20
156.8755
 30
0.0
 10
-103.9147
 20
156.8755
 30
0.0
 10
-104.6262
 20
156.8503
 30
0.0
 10
-105.4936
 20
156.8377
 30
0.0
 10
-106.6022
 20
156.8377
 30
0.0
 10
-106.6022
 20
156.8377
 30
0.0
 10
-106.6022
 20
156.8377
 30
0.0
 10
-107.5743
 20
156.8377
 30
0.0
 10
-107.5743
 20
156.8377
 30
0.0
 10
-107.5743
 20
156.8377
 30
0.0
 10
-107.5743
 20
156.8377
 30
0.0
 10
-107.5983
 20
157.8143
 30
0.0
 10
-107.5983
 20
157.8143
 30
0.0
 10
-107.5983
 20
157.8143
 30
0.0
 10
-107.5983
 20
157.8143
 30
0.0
 10
-107.6002
 20
157.8921
 30
0.0
 10
-107.6002
 20
157.8921
 30
0.0
 10
-107.6002
 20
157.8921
 30
0.0
 10
-107.6002
 20
157.8921
 30
0.0
 10
-107.6003
 20
157.8921
 30
0.0
 10
-107.6003
 20
157.8921
 30
0.0
 10
-107.6003
 20
157.8921
 30
0.0
 10
-107.6087
 20
158.1878
 30
0.0
 10
-107.6293
 20
158.9282
 30
0.0
 10
-107.4389
 20
159.2489
 30
0.0
 10
-107.4389
 20
159.2489
 30
0.0
 10
-106.229
 20
161.2862
 30
0.0
 10
-106.6331
 20
162.988
 30
0.0
 10
-106.988
 20
164.4826
 30
0.0
 10
-106.988
 20
164.4826
 30
0.0
 10
-107.3269
 20
165.9101
 30
0.0
 10
-107.6312
 20
167.1914
 30
0.0
 10
-106.9183
 20
168.6057
 30
0.0
 10
-106.9183
 20
168.6057
 30
0.0
 10
-105.2686
 20
171.8784
 30
0.0
 10
-105.2542
 20
172.7447
 30
0.0
 10
-105.2413
 20
173.5393
 30
0.0
 10
-105.2413
 20
173.5393
 30
0.0
 10
-105.226
 20
174.4764
 30
0.0
 10
-105.2117
 20
175.3386
 30
0.0
 10
-103.8527
 20
177.9458
 30
0.0
 10
-103.8527
 20
177.9458
 30
0.0
 10
-102.9476
 20
179.6825
 30
0.0
 10
-101.4544
 20
180.8352
 30
0.0
 10
-99.7327
 20
181.6059
 30
0.0
 10
-99.7327
 20
181.6059
 30
0.0
 10
-98.0904
 20
182.3411
 30
0.0
 10
-96.256
 20
182.7201
 30
0.0
 10
-94.5525
 20
182.9297
 30
0.0
 10
-94.5525
 20
182.9297
 30
0.0
 10
-94.1602
 20
182.9779
 30
0.0
 10
-93.8447
 20
183.0436
 30
0.0
 10
-93.5942
 20
183.1224
 30
0.0
 10
-93.5942
 20
183.1224
 30
0.0
 10
-94.7022
 20
184.2636
 30
0.0
 10
-96.209
 20
184.4874
 30
0.0
 10
-97.9066
 20
184.7393
 30
0.0
 10
-97.9066
 20
184.7393
 30
0.0
 10
-98.866
 20
184.8816
 30
0.0
 10
-99.8792
 20
185.0323
 30
0.0
 10
-100.9717
 20
185.3496
 30
0.0
 10
-100.9717
 20
185.3496
 30
0.0
 10
-101.24
 20
185.2125
 30
0.0
 10
-101.5434
 20
185.2747
 30
0.0
 10
-102.2443
 20
185.7365
 30
0.0
 10
-102.2443
 20
185.7365
 30
0.0
 10
-103.086
 20
185.8658
 30
0.0
 10
-104.5004
 20
186.2589
 30
0.0
 10
-105.811
 20
186.7565
 30
0.0
 10
-105.811
 20
186.7565
 30
0.0
 10
-107.1271
 20
187.2563
 30
0.0
 10
-108.4277
 20
187.8633
 30
0.0
 10
-109.058
 20
188.4081
 30
0.0
 10
-109.058
 20
188.4081
 30
0.0
 10
-109.1003
 20
188.4446
 30
0.0
 10
-110.3291
 20
189.5478
 30
0.0
 10
-111.1608
 20
190.3052
 30
0.0
 10
-111.1608
 20
190.3052
 30
0.0
 10
-111.6571
 20
190.7572
 30
0.0
 10
-112.0598
 20
191.1384
 30
0.0
 10
-112.1329
 20
191.2474
 30
0.0
 10
-112.1329
 20
191.2474
 30
0.0
 10
-112.3393
 20
191.5561
 30
0.0
 10
-113.3367
 20
192.099
 30
0.0
 10
-114.4564
 20
192.6087
 30
0.0
 10
-114.4564
 20
192.6087
 30
0.0
 10
-115.815
 20
193.2273
 30
0.0
 10
-117.2422
 20
193.7352
 30
0.0
 10
-117.6823
 20
193.7221
 30
0.0
 10
-117.6823
 20
193.7221
 30
0.0
 10
-118.9199
 20
193.6851
 30
0.0
 10
-120.0216
 20
193.7988
 30
0.0
 10
-120.925
 20
194.2544
 30
0.0
 10
-120.925
 20
194.2544
 30
0.0
 10
-121.9284
 20
194.7604
 30
0.0
 10
-122.63
 20
195.6235
 30
0.0
 10
-122.9195
 20
197.0439
 30
0.0
 10
-122.9195
 20
197.0439
 30
0.0
 10
-122.9736
 20
197.3097
 30
0.0
 10
-123.0127
 20
197.5078
 30
0.0
 10
-123.0342
 20
197.6287
 30
0.0
 10
-123.0342
 20
197.6287
 30
0.0
 10
-123.0342
 20
197.6287
 30
0.0
 10
-123.0311
 20
197.6292
 30
0.0
 10
-123.0311
 20
197.6292
 30
0.0
 10
-123.0311
 20
197.6292
 30
0.0
 10
-123.0311
 20
197.6292
 30
0.0
 10
-123.0706
 20
197.8536
 30
0.0
 10
-123.0706
 20
197.8536
 30
0.0
 10
-123.0706
 20
197.8536
 30
0.0
 10
-123.7831
 20
198.5599
 30
0.0
 10
-125.186
 20
199.9844
 30
0.0
 10
-126.468
 20
201.5679
 30
0.0
 10
-126.468
 20
201.5679
 30
0.0
 10
-127.8041
 20
203.218
 30
0.0
 10
-129.0071
 20
205.0597
 30
0.0
 10
-129.2512
 20
206.5734
 30
0.0
 10
-129.2512
 20
206.5734
 30
0.0
 10
-130.9769
 20
207.2544
 30
0.0
 10
-136.1357
 20
206.9056
 30
0.0
 10
-139.85
 20
206.6544
 30
0.0
 10
-139.85
 20
206.6544
 30
0.0
 10
-141.1362
 20
206.5674
 30
0.0
 10
-142.2552
 20
206.4918
 30
0.0
 10
-143.082
 20
206.4763
 30
0.0
 10
-143.082
 20
206.4763
 30
0.0
 10
-143.5514
 20
206.3075
 30
0.0
 10
-143.8279
 20
206.3236
 30
0.0
 10
-144.0813
 20
206.3384
 30
0.0
 10
-144.0813
 20
206.3384
 30
0.0
 10
-144.1223
 20
206.3407
 30
0.0
 10
-144.1585
 20
206.3429
 30
0.0
 10
-144.3294
 20
206.2331
 30
0.0
 10
-144.3294
 20
206.2331
 30
0.0
 10
-144.3294
 20
206.2331
 30
0.0
 10
-144.5124
 20
206.1155
 30
0.0
 10
-144.5124
 20
206.1155
 30
0.0
 10
-144.5124
 20
206.1155
 30
0.0
 10
-146.4978
 20
205.8308
 30
0.0
 10
-147.3739
 20
205.0949
 30
0.0
 10
-148.7722
 20
203.7585
 30
0.0
 10
-148.7722
 20
203.7585
 30
0.0
 10
-149.5556
 20
203.0098
 30
0.0
 10
-150.3581
 20
202.2429
 30
0.0
 10
-151.4841
 20
201.613
 30
0.0
 10
-151.4841
 20
201.613
 30
0.0
 10
-151.7169
 20
201.3765
 30
0.0
 10
-151.9893
 20
201.1075
 30
0.0
 10
-152.463
 20
200.9456
 30
0.0
 10
-152.463
 20
200.9456
 30
0.0
 10
-153.9156
 20
200.4491
 30
0.0
 10
-159.0413
 20
198.0228
 30
0.0
 10
-162.9026
 20
195.6742
 30
0.0
 10
-162.9026
 20
195.6742
 30
0.0
 10
-165.1585
 20
194.302
 30
0.0
 10
-166.9236
 20
193.048
 30
0.0
 10
-167.0239
 20
192.4624
 30
0.0
 10
-167.0239
 20
192.4624
 30
0.0
 10
-167.0239
 20
192.4624
 30
0.0
 10
-167.0434
 20
192.348
 30
0.0
 10
-167.0434
 20
192.348
 30
0.0
 10
-167.0434
 20
192.348
 30
0.0
 10
-167.0434
 20
192.348
 30
0.0
 10
-167.0942
 20
192.232
 30
0.0
 10
-167.0942
 20
192.232
 30
0.0
 10
-167.0942
 20
192.232
 30
0.0
 10
-167.8239
 20
190.5614
 30
0.0
 10
-167.8849
 20
189.6255
 30
0.0
 10
-167.9899
 20
188.0087
 30
0.0
 10
-167.9899
 20
188.0087
 30
0.0
 10
-168.0148
 20
187.6258
 30
0.0
 10
-168.042
 20
187.2089
 30
0.0
 10
-168.0705
 20
186.845
 30
0.0
 10
-168.0705
 20
186.845
 30
0.0
 10
-168.0705
 20
186.845
 30
0.0
 10
-168.0705
 20
186.8411
 30
0.0
 10
-168.0705
 20
186.8411
 30
0.0
 10
-168.0705
 20
186.8411
 30
0.0
 10
-168.0807
 20
186.7101
 30
0.0
 10
-168.0936
 20
186.5621
 30
0.0
 10
-168.1088
 20
186.3978
 30
0.0
 10
-168.1088
 20
186.3978
 30
0.0
 10
-168.1088
 20
186.3978
 30
0.0
 10
-167.9075
 20
186.3747
 30
0.0
 10
-167.9075
 20
186.3747
 30
0.0
 10
-167.9075
 20
186.3747
 30
0.0
 10
-167.9075
 20
186.3747
 30
0.0
 10
-167.6756
 20
185.8463
 30
0.0
 10
-167.6756
 20
185.8463
 30
0.0
 10
-167.6756
 20
185.8463
 30
0.0
 10
-167.2984
 20
184.9869
 30
0.0
 10
-167.0392
 20
184.1883
 30
0.0
 10
-166.798
 20
183.445
 30
0.0
 10
-166.798
 20
183.445
 30
0.0
 10
-166.2321
 20
181.7009
 30
0.0
 10
-165.7831
 20
180.3176
 30
0.0
 10
-164.0717
 20
179.8283
 30
0.0
 10
-164.0717
 20
179.8283
 30
0.0
 10
-163.8734
 20
179.7717
 30
0.0
 10
-163.7074
 20
179.6672
 30
0.0
 10
-163.5597
 20
179.5483
 30
0.0
 10
-163.5597
 20
179.5483
 30
0.0
 10
-160.842
 20
181.7383
 30
0.0
 10
-157.8783
 20
186.3344
 30
0.0
 10
-157.2042
 20
188.3963
 30
0.0
 10
-157.2042
 20
188.3963
 30
0.0
 10
-155.8672
 20
192.4862
 30
0.0
 10
-149.9008
 20
195.9526
 30
0.0
 10
-146.8174
 20
198.3068
 30
0.0
 10
-146.8174
 20
198.3068
 30
0.0
 10
-144.6076
 20
199.9941
 30
0.0
 10
-137.417
 20
201.89
 30
0.0
 10
-134.6466
 20
201.89
 30
0.0
 10
-134.6466
 20
201.89
 30
0.0
 10
-129.1951
 20
201.89
 30
0.0
 10
-129.0164
 20
195.6563
 30
0.0
 10
-135.4403
 20
198.9342
 30
0.0
 10
-135.4403
 20
198.9342
 30
0.0
 10
-139.8368
 20
201.1777
 30
0.0
 10
-139.9398
 20
195.0832
 30
0.0
 10
-145.7364
 20
194.769
 30
0.0
 10
-145.7364
 20
194.769
 30
0.0
 10
-150.2047
 20
194.5268
 30
0.0
 10
-146.319
 20
190.737
 30
0.0
 10
-151.0734
 20
188.1997
 30
0.0
 10
-151.0734
 20
188.1997
 30
0.0
 10
-151.5398
 20
187.9508
 30
0.0
 10
-152.2493
 20
186.9602
 30
0.0
 10
-152.9028
 20
186.5442
 30
0.0
 10
-152.9028
 20
186.5442
 30
0.0
 10
-152.9028
 20
186.5442
 30
0.0
 10
-152.9028
 20
185.8411
 30
0.0
 10
-152.9028
 20
185.8411
 30
0.0
 10
-152.9028
 20
185.8411
 30
0.0
 10
-152.9028
 20
181.5634
 30
0.0
 10
-151.7024
 20
181.6346
 30
0.0
 10
-151.8218
 20
179.0678
 30
0.0
 10
-151.8218
 20
179.0678
 30
0.0
 10
-152.0063
 20
175.1031
 30
0.0
 10
-156.6702
 20
179.0211
 30
0.0
 10
-157.8392
 20
177.7222
 30
0.0
 10
-157.8392
 20
177.7222
 30
0.0
 10
-158.1416
 20
177.3861
 30
0.0
 10
-158.5899
 20
177.8022
 30
0.0
 10
-160.5336
 20
175.5493
 30
0.0
 10
-160.5336
 20
175.5493
 30
0.0
 10
-160.5336
 20
175.5493
 30
0.0
 10
-159.9595
 20
175.4167
 30
0.0
 10
-159.9595
 20
175.4167
 30
0.0
 10
-159.9595
 20
175.4167
 30
0.0
 10
-159.9595
 20
175.4167
 30
0.0
 10
-159.8292
 20
174.7872
 30
0.0
 10
-159.8292
 20
174.7872
 30
0.0
 10
-159.8292
 20
174.7872
 30
0.0
 10
-159.7719
 20
174.5104
 30
0.0
 10
-159.7445
 20
174.4574
 30
0.0
 10
-159.7194
 20
174.4089
 30
0.0
 10
-159.7194
 20
174.4089
 30
0.0
 10
-159.5799
 20
174.1397
 30
0.0
 10
-159.2846
 20
172.3579
 30
0.0
 10
-159.2844
 20
172.3579
 30
0.0
 10
-159.2844
 20
172.3579
 30
0.0
 10
-159.269
 20
172.2274
 30
0.0
 10
-159.0966
 20
172.2844
 30
0.0
 10
-158.8417
 20
172.0306
 30
0.0
 10
-158.8417
 20
172.0306
 30
0.0
 10
-158.8417
 20
172.0306
 30
0.0
 10
-158.8397
 20
172.0326
 30
0.0
 10
-158.8397
 20
172.0326
 30
0.0
 10
-158.8397
 20
172.0326
 30
0.0
 10
-158.0778
 20
171.2705
 30
0.0
 10
-157.0564
 20
170.2486
 30
0.0
 10
-156.8918
 20
168.9109
 30
0.0
 10
-156.8918
 20
168.9109
 30
0.0
 10
-156.8044
 20
168.1999
 30
0.0
 10
-156.7381
 20
167.4407
 30
0.0
 10
-156.6697
 20
166.656
 30
0.0
 10
-156.6697
 20
166.656
 30
0.0
 10
-156.4841
 20
164.5267
 30
0.0
 10
-156.2811
 20
162.1997
 30
0.0
 10
-155.6392
 20
160.636
 30
0.0
 10
-155.6392
 20
160.636
 30
0.0
 10
-155.6392
 20
160.636
 30
0.0
 10
-155.5745
 20
160.4785
 30
0.0
 10
-155.5745
 20
160.4785
 30
0.0
 10
-155.5745
 20
160.4785
 30
0.0
 10
-155.5745
 20
160.4785
 30
0.0
 10
-155.565
 20
160.3118
 30
0.0
 10
-155.565
 20
160.3118
 30
0.0
 10
-155.565
 20
160.3118
 30
0.0
 10
-155.5549
 20
160.134
 30
0.0
 10
-155.431
 20
159.8732
 30
0.0
 10
-155.2788
 20
159.5525
 30
0.0
 10
-155.2788
 20
159.5525
 30
0.0
 10
-154.8465
 20
158.6417
 30
0.0
 10
-154.2547
 20
157.3948
 30
0.0
 10
-154.363
 20
154.8601
 30
0.0
 10
-154.363
 20
154.8601
 30
0.0
 10
-154.3892
 20
154.2447
 30
0.0
 10
-154.2116
 20
153.5497
 30
0.0
 10
-153.9337
 20
152.8721
 30
0.0
 10
-153.9337
 20
152.8721
 30
0.0
 10
-153.5586
 20
151.9576
 30
0.0
 10
-153.0086
 20
151.0942
 30
0.0
 10
-152.5106
 20
150.4744
 30
0.0
 10
-152.5106
 20
150.4744
 30
0.0
 10
-152.0552
 20
149.9077
 30
0.0
 10
-151.8772
 20
148.5297
 30
0.0
 10
-151.896
 20
147.0398
 30
0.0
 10
-151.896
 20
147.0398
 30
0.0
 10
-151.9156
 20
145.4837
 30
0.0
 10
-152.1193
 20
143.7101
 30
0.0
 10
-152.4178
 20
142.7077
 30
0.0
 10
-152.4178
 20
142.7077
 30
0.0
 10
-152.4178
 20
142.7077
 30
0.0
 10
-152.4217
 20
142.696
 30
0.0
 10
-152.4217
 20
142.696
 30
0.0
 10
-152.4217
 20
142.696
 30
0.0
 10
-153.2135
 20
140.156
 30
0.0
 10
-152.983
 20
138.2966
 30
0.0
 10
-152.7156
 20
136.1392
 30
0.0
 10
-152.7156
 20
136.1392
 30
0.0
 10
-152.6463
 20
135.5802
 30
0.0
 10
-152.5744
 20
135.0003
 30
0.0
 10
-152.5036
 20
134.219
 30
0.0
 10
-152.5036
 20
134.219
 30
0.0
 10
-152.3951
 20
133.0207
 30
0.0
 10
-152.2607
 20
132.203
 30
0.0
 10
-152.1479
 20
131.5156
 30
0.0
 10
-152.1479
 20
131.5156
 30
0.0
 10
-151.8901
 20
129.9445
 30
0.0
 10
-151.7358
 20
129.0045
 30
0.0
 10
-152.1293
 20
125.8061
 30
0.0
 10
-152.1293
 20
125.8061
 30
0.0
 10
-152.2478
 20
124.843
 30
0.0
 10
-152.1379
 20
124.2855
 30
0.0
 10
-152.0269
 20
123.7223
 30
0.0
 10
-152.0269
 20
123.7223
 30
0.0
 10
-151.8245
 20
122.6951
 30
0.0
 10
-151.6188
 20
121.6518
 30
0.0
 10
-152.2624
 20
119.0234
 30
0.0
 10
-152.2624
 20
119.0234
 30
0.0
 10
-152.4101
 20
118.4201
 30
0.0
 10
-152.6879
 20
117.9807
 30
0.0
 10
-152.9989
 20
117.4889
 30
0.0
 10
-152.9989
 20
117.4889
 30
0.0
 10
-153.3311
 20
116.9635
 30
0.0
 10
-153.7146
 20
116.3571
 30
0.0
 10
-153.8835
 20
115.44
 30
0.0
 10
-153.8835
 20
115.44
 30
0.0
 10
-153.8835
 20
115.44
 30
0.0
 10
-153.9364
 20
115.1528
 30
0.0
 10
-153.9364
 20
115.1528
 30
0.0
 10
-153.9364
 20
115.1528
 30
0.0
 10
-153.9694
 20
114.973
 30
0.0
 10
-154.0079
 20
114.8053
 30
0.0
 10
-154.051
 20
114.617
 30
0.0
 10
-154.051
 20
114.617
 30
0.0
 10
-154.1439
 20
114.2107
 30
0.0
 10
-154.264
 20
113.6861
 30
0.0
 10
-154.3065
 20
113.3225
 30
0.0
 10
-154.3065
 20
113.3225
 30
0.0
 10
-153.7837
 20
113.202
 30
0.0
 10
-153.2787
 20
112.9954
 30
0.0
 10
-152.8693
 20
112.6906
 30
0.0
 10
-152.8693
 20
112.6906
 30
0.0
 10
-152.6359
 20
112.5168
 30
0.0
 10
-152.4328
 20
112.3159
 30
0.0
 10
-152.2702
 20
112.0863
 30
0.0
 10
-152.2702
 20
112.0863
 30
0.0
 10
-152.4705
 20
111.947
 30
0.0
 10
-152.6727
 20
111.8093
 30
0.0
 10
-152.8756
 20
111.68
 30
0.0
 10
-152.8756
 20
111.68
 30
0.0
 10
-152.1609
 20
111.4395
 30
0.0
 10
-151.4623
 20
111.227
 30
0.0
 10
-151.0174
 20
111.0864
 30
0.0
 10
-151.0174
 20
111.0864
 30
0.0
 10
-150.5457
 20
110.9373
 30
0.0
 10
-150.126
 20
110.8512
 30
0.0
 10
-149.7591
 20
110.7812
 30
0.0
 10
-149.7591
 20
110.7812
 30
0.0
 10
-149.2301
 20
111.1162
 30
0.0
 10
-148.7321
 20
111.3564
 30
0.0
 10
-148.2809
 20
111.3444
 30
0.0
 10
-148.2809
 20
111.3444
 30
0.0
 10
-146.9115
 20
110.8758
 30
0.0
 10
-144.8294
 20
110.4031
 30
0.0
 10
-142.7978
 20
110.3311
 30
0.0
 10
-142.7978
 20
110.3311
 30
0.0
 10
-142.7978
 20
110.3311
 30
0.0
 10
-142.7978
 20
110.3309
 30
0.0
 10
-142.7978
 20
110.3309
 30
0.0
 10
-142.7978
 20
110.3309
 30
0.0
 10
-141.4191
 20
110.2824
 30
0.0
 10
-140.0499
 20
110.4173
 30
0.0
 10
-138.9007
 20
110.8549
 30
0.0
 10
-138.9007
 20
110.8549
 30
0.0
 10
-137.5881
 20
111.3547
 30
0.0
 10
-136.5572
 20
112.225
 30
0.0
 10
-136.064
 20
113.6142
 30
0.0
 10
-136.064
 20
113.6142
 30
0.0
 10
-135.9729
 20
113.8709
 30
0.0
 10
-135.9023
 20
114.1454
 30
0.0
 10
-135.8543
 20
114.4386
 30
0.0
 10
-135.8543
 20
114.4386
 30
0.0
 10
-135.7236
 20
114.4454
 30
0.0
 10
-135.5349
 20
114.4592
 30
0.0
 10
-135.2629
 20
114.5412
 30
0.0
 10
-135.2629
 20
114.5412
 30
0.0
 10
-134.0635
 20
114.903
 30
0.0
 10
-132.6375
 20
115.3182
 30
0.0
 10
-132.6286
 20
115.3175
 30
0.0
 10
-132.6286
 20
115.3175
 30
0.0
 10
-132.6286
 20
115.3175
 30
0.0
 10
-132.0267
 20
115.2702
 30
0.0
 10
-132.0267
 20
115.2702
 30
0.0
 10
-132.0267
 20
115.2702
 30
0.0
 10
-132.0267
 20
115.2702
 30
0.0
 10
-131.6129
 20
115.7228
 30
0.0
 10
-131.6129
 20
115.7228
 30
0.0
 10
-131.6129
 20
115.7228
 30
0.0
 10
-131.3217
 20
116.0413
 30
0.0
 10
-130.9343
 20
116.2437
 30
0.0
 10
-130.5955
 20
116.3243
 30
0.0
 10
-130.5955
 20
116.3243
 30
0.0
 10
-130.5955
 20
116.3243
 30
0.0
 10
-130.2798
 20
116.1283
 30
0.0
 10
-130.2798
 20
116.1283
 30
0.0
 10
-130.2798
 20
116.1283
 30
0.0
 10
-130.2505
 20
115.9671
 30
0.0
 10
-130.2022
 20
115.7709
 30
0.0
 10
-130.1217
 20
115.5294
 30
0.0
 10
-130.1217
 20
115.5294
 30
0.0
 10
-130.1217
 20
115.5294
 30
0.0
 10
-129.924
 20
114.9362
 30
0.0
 10
-129.924
 20
114.9362
 30
0.0
 10
-129.924
 20
114.9362
 30
0.0
 10
-129.924
 20
114.9362
 30
0.0
 10
-129.3307
 20
114.7384
 30
0.0
 10
-129.3307
 20
114.7384
 30
0.0
 10
-129.3307
 20
114.7384
 30
0.0
 10
-128.7337
 20
114.5394
 30
0.0
 10
-126.0636
 20
114.7013
 30
0.0
 10
-123.5355
 20
114.8547
 30
0.0
 10
-123.5355
 20
114.8547
 30
0.0
 10
-122.568
 20
114.9134
 30
0.0
 10
-121.6228
 20
114.9708
 30
0.0
 10
-120.8509
 20
115.0076
 30
0.0
 10
-120.8509
 20
115.0076
 30
0.0
 10
-120.9045
 20
113.4496
 30
0.0
 10
-120.9411
 20
111.349
 30
0.0
 10
-120.4244
 20
110.534
 30
0.0
 10
-120.4244
 20
110.534
 30
0.0
 10
-118.5251
 20
107.5371
 30
0.0
 10
-114.6116
 20
108.5162
 30
0.0
 10
-111.2448
 20
109.3586
 30
0.0
 10
-111.2448
 20
109.3586
 30
0.0
 10
-109.4444
 20
109.8091
 30
0.0
 10
-107.877
 20
110.2012
 30
0.0
 10
-107.8043
 20
110.0182
 30
0.0
 10
-107.8043
 20
110.0182
 30
0.0
 10
-106.6013
 20
106.9921
 30
0.0
 10
-104.3284
 20
107.3394
 30
0.0
 10
-102.4501
 20
107.6265
 30
0.0
 10
-102.4501
 20
107.6265
 30
0.0
 10
-101.943
 20
107.7039
 30
0.0
 10
-101.668
 20
107.9944
 30
0.0
 10
-101.5853
 20
107.8829
 30
0.0
 10
-101.5853
 20
107.8829
 30
0.0
 10
-100.9048
 20
106.9651
 30
0.0
 10
-99.8985
 20
106.3302
 30
0.0
 10
-98.7584
 20
105.9829
 30
0.0
 10
-98.7584
 20
105.9829
 30
0.0
 10
-97.7116
 20
106.3174
 30
0.0
 10
-96.1529
 20
106.4319
 30
0.0
 10
-95.6022
 20
106.6337
 30
0.0
 10
-95.6022
 20
106.6337
 30
0.0
 10
-95.2131
 20
106.7763
 30
0.0
 10
-94.919
 20
106.8395
 30
0.0
 10
-94.6246
 20
106.9036
 30
0.0
 10
-94.6246
 20
106.9036
 30
0.0
 10
-95.2159
 20
108.4416
 30
0.0
 10
-95.1857
 20
108.1719
 30
0.0
 10
-94.8655
 20
108.4356
 30
0.0
 10
-94.8655
 20
108.4356
 30
0.0
 10
-94.8655
 20
108.4356
 30
0.0
 10
-95.094
 20
108.4482
 30
0.0
 10
-95.094
 20
108.4482
 30
0.0
 10
-95.094
 20
108.4482
 30
0.0
 10
-95.4245
 20
108.3516
 30
0.0
 10
-95.7499
 20
108.2136
 30
0.0
 10
-96.0935
 20
108.1829
 30
0.0
 10
-96.0935
 20
108.1829
 30
0.0
 10
-96.0937
 20
108.2761
 30
0.0
 10
-96.0813
 20
108.3692
 30
0.0
 10
-96.0559
 20
108.4726
 30
0.0
 10
-96.0559
 20
108.4726
 30
0.0
 10
-95.9529
 20
108.8905
 30
0.0
 10
-95.791
 20
109.0012
 30
0.0
 10
-95.5414
 20
109.1737
 30
0.0
 10
-95.5414
 20
109.1737
 30
0.0
 10
-95.4117
 20
109.263
 30
0.0
 10
-95.1091
 20
109.4717
 30
0.0
 10
-94.6433
 20
111.6988
 30
0.0
 10
-94.6433
 20
111.6988
 30
0.0
 10
-94.6258
 20
111.7826
 30
0.0
 10
-94.8245
 20
112.3051
 30
0.0
 10
-95.1074
 20
113.0489
 30
0.0
 10
-95.1074
 20
113.0489
 30
0.0
 10
-95.7579
 20
114.7591
 30
0.0
 10
-96.7607
 20
117.3952
 30
0.0
 10
-96.7607
 20
121.032
 30
0.0
 10
-96.7607
 20
121.032
 30
0.0
 10
-96.7607
 20
122.9248
 30
0.0
 10
-96.7074
 20
123.8013
 30
0.0
 10
-96.6762
 20
124.3149
 30
0.0
 10
-96.6762
 20
124.3149
 30
0.0
 10
-96.6605
 20
124.5753
 30
0.0
 10
-96.6516
 20
124.7214
 30
0.0
 10
-96.6624
 20
124.8721
 30
0.0
 10
-96.6624
 20
124.8721
 30
0.0
 10
-96.6787
 20
125.0989
 30
0.0
 10
-96.7356
 20
125.4081
 30
0.0
 10
-96.8646
 20
126.1108
 30
0.0
 10
-96.8646
 20
126.1108
 30
0.0
 10
-96.9776
 20
126.7261
 30
0.0
 10
-97.136
 20
127.5877
 30
0.0
 10
-97.2969
 20
128.5142
 30
0.0
 10
-97.2969
 20
128.5142
 30
0.0
 10
-97.6919
 20
130.7882
 30
0.0
 10
-98.1792
 20
132.1792
 30
0.0
 10
-98.6218
 20
133.4431
 30
0.0
 10
-98.6218
 20
133.4431
 30
0.0
 10
-99.4065
 20
135.6836
 30
0.0
 10
-100.0615
 20
137.5539
 30
0.0
 10
-99.9318
 20
142.6606
 30
0.0
 10
-99.9318
 20
142.6606
 30
0.0
 10
-99.9072
 20
143.6294
 30
0.0
 10
-100.0915
 20
144.3876
 30
0.0
 10
-100.3657
 20
145.0955
 30
0.0
  0
ENDSEC
  0
SECTION
  2
OBJECTS
  0
DICTIONARY
  5
C
330
0
100
AcDbDictionary
281
     1
  3
ACAD_GROUP
350
D
  3
ACAD_LAYOUT
350
1A
  3
ACAD_MATERIAL
350
3B
  3
ACAD_MLEADERSTYLE
350
8C
  3
ACAD_MLINESTYLE
350
17
  3
ACAD_PLOTSETTINGS
350
19
  3
ACAD_PLOTSTYLENAME
350
E
  3
ACAD_TABLESTYLE
350
8B
  3
ACAD_VISUALSTYLE
350
2A
  0
DICTIONARY
  5
D
102
{ACAD_REACTORS
330
C
102
}
330
C
100
AcDbDictionary
281
     1
  0
DICTIONARY
  5
1A
102
{ACAD_REACTORS
330
C
102
}
330
C
100
AcDbDictionary
281
     1
  3
Layout1
350
1E
  3
Layout2
350
26
  3
Model
350
22
  0
DICTIONARY
  5
3B
102
{ACAD_REACTORS
330
C
102
}
330
C
100
AcDbDictionary
281
     1
  3
ByBlock
350
3D
  3
ByLayer
350
3C
  3
Global
350
3E
  0
DICTIONARY
  5
8C
102
{ACAD_REACTORS
330
C
102
}
330
C
100
AcDbDictionary
281
     1
  0
DICTIONARY
  5
17
102
{ACAD_REACTORS
330
C
102
}
330
C
100
AcDbDictionary
281
     1
  3
Standard
350
18
  0
DICTIONARY
  5
19
102
{ACAD_REACTORS
330
C
102
}
330
C
100
AcDbDictionary
281
     1
  0
ACDBDICTIONARYWDFLT
  5
E
102
{ACAD_REACTORS
330
C
102
}
330
C
100
AcDbDictionary
281
     1
  3
Normal
350
F
100
AcDbDictionaryWithDefault
340
F
  0
DICTIONARY
  5
8B
102
{ACAD_REACTORS
330
C
102
}
330
C
100
AcDbDictionary
281
     1
  0
DICTIONARY
  5
2A
102
{ACAD_REACTORS
330
C
102
}
330
C
100
AcDbDictionary
281
     1
  3
2dWireframe
350
2F
  3
3D Hidden
350
31
  3
3dWireframe
350
30
  3
Basic
350
32
  3
Brighten
350
36
  3
ColorChange
350
3A
  3
Conceptual
350
34
  3
Dim
350
35
  3
Facepattern
350
39
  3
Flat
350
2B
  3
FlatWithEdges
350
2C
  3
Gouraud
350
2D
  3
GouraudWithEdges
350
2E
  3
Linepattern
350
38
  3
Realistic
350
33
  3
Thicken
350
37
  0
LAYOUT
  5
1E
102
{ACAD_REACTORS
330
1A
102
}
330
1A
100
AcDbPlotSettings
  1

  2
none_device
  4

  6

 40
0.0
 41
0.0
 42
0.0
 43
0.0
 44
0.0
 45
0.0
 46
0.0
 47
0.0
 48
0.0
 49
0.0
140
0.0
141
0.0
142
1.0
143
1.0
 70
   688
 72
     0
 73
     0
 74
     5
  7

 75
    16
 76
     0
 77
     2
 78
   300
147
1.0
148
0.0
149
0.0
100
AcDbLayout
  1
Layout1
 70
     1
 71
     1
 10
0.0
 20
0.0
 11
12.0
 21
9.0
 12
0.0
 22
0.0
 32
0.0
 14
1.000000000000000E+20
 24
1.000000000000000E+20
 34
1.000000000000000E+20
 15
-1.000000000000000E+20
 25
-1.000000000000000E+20
 35
-1.000000000000000E+20
146
0.0
 13
0.0
 23
0.0
 33
0.0
 16
1.0
 26
0.0
 36
0.0
 17
0.0
 27
1.0
 37
0.0
 76
     0
330
1B
  0
LAYOUT
  5
26
102
{ACAD_REACTORS
330
1A
102
}
330
1A
100
AcDbPlotSettings
  1

  2
none_device
  4

  6

 40
0.0
 41
0.0
 42
0.0
 43
0.0
 44
0.0
 45
0.0
 46
0.0
 47
0.0
 48
0.0
 49
0.0
140
0.0
141
0.0
142
1.0
143
1.0
 70
   688
 72
     0
 73
     0
 74
     5
  7

 75
    16
 76
     0
 77
     2
 78
   300
147
1.0
148
0.0
149
0.0
100
AcDbLayout
  1
Layout2
 70
     1
 71
     2
 10
0.0
 20
0.0
 11
0.0
 21
0.0
 12
0.0
 22
0.0
 32
0.0
 14
0.0
 24
0.0
 34
0.0
 15
0.0
 25
0.0
 35
0.0
146
0.0
 13
0.0
 23
0.0
 33
0.0
 16
1.0
 26
0.0
 36
0.0
 17
0.0
 27
1.0
 37
0.0
 76
     0
330
23
  0
LAYOUT
  5
22
102
{ACAD_REACTORS
330
1A
102
}
330
1A
100
AcDbPlotSettings
  1

  2
none_device
  4

  6

 40
0.0
 41
0.0
 42
0.0
 43
0.0
 44
0.0
 45
0.0
 46
0.0
 47
0.0
 48
0.0
 49
0.0
140
0.0
141
0.0
142
1.0
143
1.0
 70
  1712
 72
     0
 73
     0
 74
     0
  7

 75
     0
 76
     0
 77
     2
 78
   300
147
1.0
148
0.0
149
0.0
100
AcDbLayout
  1
Model
 70
     1
 71
     0
 10
0.0
 20
0.0
 11
12.0
 21
9.0
 12
0.0
 22
0.0
 32
0.0
 14
-244.1758
 24
-194.407
 34
0.0
 15
-8.6201
 25
323.2786
 35
0.0
146
0.0
 13
0.0
 23
0.0
 33
0.0
 16
1.0
 26
0.0
 36
0.0
 17
0.0
 27
1.0
 37
0.0
 76
     0
330
1F
331
29
  0
MATERIAL
  5
3D
102
{ACAD_REACTORS
330
3B
102
}
330
3B
100
AcDbMaterial
  1
ByBlock
 72
     1
 94
      127
  0
MATERIAL
  5
3C
102
{ACAD_REACTORS
330
3B
102
}
330
3B
100
AcDbMaterial
  1
ByLayer
 72
     1
 94
      127
  0
MATERIAL
  5
3E
102
{ACAD_REACTORS
330
3B
102
}
330
3B
100
AcDbMaterial
  1
Global
 72
     1
 94
      127
  0
MLINESTYLE
  5
18
102
{ACAD_REACTORS
330
17
102
}
330
17
100
AcDbMlineStyle
  2
Standard
 70
     0
  3

 62
   256
 51
90.0
 52
90.0
 71
     2
 49
0.5
 62
   256
  6
BYLAYER
 49
-0.5
 62
   256
  6
BYLAYER
  0
ACDBPLACEHOLDER
  5
F
102
{ACAD_REACTORS
330
E
102
}
330
E
  0
VISUALSTYLE
  5
2F
102
{ACAD_REACTORS
330
2A
102
}
102
{ACAD_XDICTIONARY
360
73
102
}
330
2A
100
AcDbVisualStyle
  2
2dWireframe
 70
     4
 71
     0
 72
     2
 73
     0
 90
        0
 40
-0.6
 41
-30.0
 62
     5
 63
     7
421
 16777215
 74
     1
 91
        4
 64
     7
 65
   257
 75
     1
175
     1
 42
1.0
 92
        0
 66
   257
 43
1.0
 76
     1
 77
     6
 78
     2
 67
     7
 79
     5
170
     0
171
     0
290
     0
174
     0
 93
        1
 44
0.0
173
     0
291
     0
 45
0.0
  0
VISUALSTYLE
  5
31
102
{ACAD_REACTORS
330
2A
102
}
102
{ACAD_XDICTIONARY
360
77
102
}
330
2A
100
AcDbVisualStyle
  2
3D Hidden
 70
     6
 71
     1
 72
     2
 73
     2
 90
        0
 40
-0.6
 41
-30.0
 62
     5
 63
     7
421
 16777215
 74
     2
 91
        2
 64
     7
 65
   257
 75
     2
175
     1
 42
40.0
 92
        0
 66
   257
 43
1.0
 76
     1
 77
     6
 78
     2
 67
     7
 79
     3
170
     0
171
     0
290
     0
174
     0
 93
        1
 44
0.0
173
     0
291
     0
 45
0.0
  0
VISUALSTYLE
  5
30
102
{ACAD_REACTORS
330
2A
102
}
102
{ACAD_XDICTIONARY
360
75
102
}
330
2A
100
AcDbVisualStyle
  2
3dWireframe
 70
     5
 71
     0
 72
     2
 73
     0
 90
        0
 40
-0.6
 41
-30.0
 62
     5
 63
     7
421
 16777215
 74
     1
 91
        4
 64
     7
 65
   257
 75
     1
175
     1
 42
1.0
 92
        0
 66
   257
 43
1.0
 76
     1
 77
     6
 78
     2
 67
     7
 79
     5
170
     0
171
     0
290
     0
174
     0
 93
        1
 44
0.0
173
     0
291
     0
 45
0.0
  0
VISUALSTYLE
  5
32
102
{ACAD_REACTORS
330
2A
102
}
102
{ACAD_XDICTIONARY
360
79
102
}
330
2A
100
AcDbVisualStyle
  2
Basic
 70
     7
 71
     1
 72
     0
 73
     1
 90
        0
 40
-0.6
 41
-30.0
 62
     5
 63
     7
421
 16777215
 74
     0
 91
        4
 64
     7
 65
   257
 75
     1
175
     1
 42
1.0
 92
        8
 66
     7
 43
1.0
 76
     1
 77
     6
 78
     2
 67
     7
 79
     5
170
     0
171
     0
290
     0
174
     0
 93
        1
 44
0.0
173
     0
291
     1
 45
0.0
  0
VISUALSTYLE
  5
36
102
{ACAD_REACTORS
330
2A
102
}
102
{ACAD_XDICTIONARY
360
81
102
}
330
2A
100
AcDbVisualStyle
  2
Brighten
 70
    12
 71
     2
 72
     2
 73
     0
 90
        0
 40
-0.6
 41
-30.0
 62
     5
 63
     7
421
 16777215
 74
     1
 91
        4
 64
     7
 65
   257
 75
     1
175
     1
 42
1.0
 92
        8
 66
     7
 43
1.0
 76
     1
 77
     6
 78
     2
 67
     7
 79
     5
170
     0
171
     0
290
     0
174
     0
 93
        1
 44
50.0
173
     0
291
     1
 45
0.0
  0
VISUALSTYLE
  5
3A
102
{ACAD_REACTORS
330
2A
102
}
102
{ACAD_XDICTIONARY
360
89
102
}
330
2A
100
AcDbVisualStyle
  2
ColorChange
 70
    16
 71
     2
 72
     2
 73
     3
 90
        0
 40
-0.6
 41
-30.0
 62
     5
 63
     8
421
  8421504
 74
     1
 91
        4
 64
     7
 65
   257
 75
     1
175
     1
 42
1.0
 92
        8
 66
     8
424
  8421504
 43
1.0
 76
     1
 77
     6
 78
     2
 67
     7
 79
     5
170
     0
171
     0
290
     0
174
     0
 93
        1
 44
0.0
173
     0
291
     1
 45
0.0
  0
VISUALSTYLE
  5
34
102
{ACAD_REACTORS
330
2A
102
}
102
{ACAD_XDICTIONARY
360
7D
102
}
330
2A
100
AcDbVisualStyle
  2
Conceptual
 70
     9
 71
     3
 72
     2
 73
     0
 90
        0
 40
-0.6
 41
-30.0
 62
     5
 63
     7
421
 16777215
 74
     2
 91
        2
 64
     7
 65
   257
 75
     1
175
     1
 42
40.0
 92
        8
 66
     7
 43
1.0
 76
     1
 77
     6
 78
     2
 67
     7
 79
     3
170
     0
171
     0
290
     0
174
     0
 93
        1
 44
0.0
173
     0
291
     0
 45
0.0
  0
VISUALSTYLE
  5
35
102
{ACAD_REACTORS
330
2A
102
}
102
{ACAD_XDICTIONARY
360
7F
102
}
330
2A
100
AcDbVisualStyle
  2
Dim
 70
    11
 71
     2
 72
     2
 73
     0
 90
        0
 40
-0.6
 41
-30.0
 62
     5
 63
     7
421
 16777215
 74
     1
 91
        4
 64
     7
 65
   257
 75
     1
175
     1
 42
1.0
 92
        8
 66
     7
 43
1.0
 76
     1
 77
     6
 78
     2
 67
     7
 79
     5
170
     0
171
     0
290
     0
174
     0
 93
        1
 44
-50.0
173
     0
291
     1
 45
0.0
  0
VISUALSTYLE
  5
39
102
{ACAD_REACTORS
330
2A
102
}
102
{ACAD_XDICTIONARY
360
87
102
}
330
2A
100
AcDbVisualStyle
  2
Facepattern
 70
    15
 71
     2
 72
     2
 73
     0
 90
        0
 40
-0.6
 41
-30.0
 62
     5
 63
     7
421
 16777215
 74
     1
 91
        4
 64
     7
 65
   257
 75
     1
175
     1
 42
1.0
 92
        8
 66
     7
 43
1.0
 76
     1
 77
     6
 78
     2
 67
     7
 79
     5
170
     0
171
     0
290
     0
174
     0
 93
        1
 44
0.0
173
     0
291
     1
 45
0.0
  0
VISUALSTYLE
  5
2B
102
{ACAD_REACTORS
330
2A
102
}
102
{ACAD_XDICTIONARY
360
6B
102
}
330
2A
100
AcDbVisualStyle
  2
Flat
 70
     0
 71
     2
 72
     1
 73
     1
 90
        2
 40
-0.6
 41
30.0
 62
     5
 63
     7
421
 16777215
 74
     0
 91
        4
 64
     7
 65
   257
 75
     1
175
     1
 42
1.0
 92
        8
 66
     7
 43
1.0
 76
     1
 77
     6
 78
     2
 67
     7
 79
     5
170
     0
171
     0
290
     0
174
     0
 93
       13
 44
0.0
173
     0
291
     1
 45
0.0
  0
VISUALSTYLE
  5
2C
102
{ACAD_REACTORS
330
2A
102
}
102
{ACAD_XDICTIONARY
360
6D
102
}
330
2A
100
AcDbVisualStyle
  2
FlatWithEdges
 70
     1
 71
     2
 72
     1
 73
     1
 90
        2
 40
-0.6
 41
30.0
 62
     5
 63
     7
421
 16777215
 74
     1
 91
        4
 64
     7
 65
   257
 75
     1
175
     1
 42
1.0
 92
        0
 66
   257
 43
1.0
 76
     1
 77
     6
 78
     2
 67
     7
 79
     5
170
     0
171
     0
290
     0
174
     0
 93
       13
 44
0.0
173
     0
291
     1
 45
0.0
  0
VISUALSTYLE
  5
2D
102
{ACAD_REACTORS
330
2A
102
}
102
{ACAD_XDICTIONARY
360
6F
102
}
330
2A
100
AcDbVisualStyle
  2
Gouraud
 70
     2
 71
     2
 72
     2
 73
     1
 90
        2
 40
-0.6
 41
30.0
 62
     5
 63
     7
421
 16777215
 74
     0
 91
        4
 64
     7
 65
   257
 75
     1
175
     1
 42
1.0
 92
        0
 66
     7
 43
1.0
 76
     1
 77
     6
 78
     2
 67
     7
 79
     5
170
     0
171
     0
290
     0
174
     0
 93
       13
 44
0.0
173
     0
291
     1
 45
0.0
  0
VISUALSTYLE
  5
2E
102
{ACAD_REACTORS
330
2A
102
}
102
{ACAD_XDICTIONARY
360
71
102
}
330
2A
100
AcDbVisualStyle
  2
GouraudWithEdges
 70
     3
 71
     2
 72
     2
 73
     1
 90
        2
 40
-0.6
 41
30.0
 62
     5
 63
     7
421
 16777215
 74
     1
 91
        4
 64
     7
 65
   257
 75
     1
175
     1
 42
1.0
 92
        0
 66
   257
 43
1.0
 76
     1
 77
     6
 78
     2
 67
     7
 79
     5
170
     0
171
     0
290
     0
174
     0
 93
       13
 44
0.0
173
     0
291
     1
 45
0.0
  0
VISUALSTYLE
  5
38
102
{ACAD_REACTORS
330
2A
102
}
102
{ACAD_XDICTIONARY
360
85
102
}
330
2A
100
AcDbVisualStyle
  2
Linepattern
 70
    14
 71
     2
 72
     2
 73
     0
 90
        0
 40
-0.6
 41
-30.0
 62
     5
 63
     7
421
 16777215
 74
     1
 91
        4
 64
     7
 65
   257
 75
     7
175
     7
 42
1.0
 92
        8
 66
     7
 43
1.0
 76
     1
 77
     6
 78
     2
 67
     7
 79
     5
170
     0
171
     0
290
     0
174
     0
 93
        1
 44
0.0
173
     0
291
     1
 45
0.0
  0
VISUALSTYLE
  5
33
102
{ACAD_REACTORS
330
2A
102
}
102
{ACAD_XDICTIONARY
360
7B
102
}
330
2A
100
AcDbVisualStyle
  2
Realistic
 70
     8
 71
     2
 72
     2
 73
     0
 90
        0
 40
-0.6
 41
-30.0
 62
     5
 63
     7
421
 16777215
 74
     1
 91
        0
 64
     7
 65
   257
 75
     1
175
     1
 42
1.0
 92
        8
 66
     8
424
  7895160
 43
1.0
 76
     1
 77
     6
 78
     2
 67
     7
 79
     5
170
     0
171
     0
290
     0
174
     0
 93
       13
 44
0.0
173
     0
291
     0
 45
0.0
  0
VISUALSTYLE
  5
37
102
{ACAD_REACTORS
330
2A
102
}
102
{ACAD_XDICTIONARY
360
83
102
}
330
2A
100
AcDbVisualStyle
  2
Thicken
 70
    13
 71
     2
 72
     2
 73
     0
 90
        0
 40
-0.6
 41
-30.0
 62
     5
 63
     7
421
 16777215
 74
     1
 91
        4
 64
     7
 65
   257
 75
     1
175
     1
 42
1.0
 92
       12
 66
     7
 43
1.0
 76
     1
 77
     6
 78
     2
 67
     7
 79
     5
170
     0
171
     0
290
     0
174
     0
 93
        1
 44
0.0
173
     0
291
     1
 45
0.0
  0
DICTIONARY
  5
73
330
2F
100
AcDbDictionary
280
     1
281
     1
  3
ACAD_XREC_ROUNDTRIP
360
74
  0
DICTIONARY
  5
77
330
31
100
AcDbDictionary
280
     1
281
     1
  3
ACAD_XREC_ROUNDTRIP
360
78
  0
DICTIONARY
  5
75
330
30
100
AcDbDictionary
280
     1
281
     1
  3
ACAD_XREC_ROUNDTRIP
360
76
  0
DICTIONARY
  5
79
330
32
100
AcDbDictionary
280
     1
281
     1
  3
ACAD_XREC_ROUNDTRIP
360
7A
  0
DICTIONARY
  5
81
330
36
100
AcDbDictionary
280
     1
281
     1
  3
ACAD_XREC_ROUNDTRIP
360
82
  0
DICTIONARY
  5
89
330
3A
100
AcDbDictionary
280
     1
281
     1
  3
ACAD_XREC_ROUNDTRIP
360
8A
  0
DICTIONARY
  5
7D
330
34
100
AcDbDictionary
280
     1
281
     1
  3
ACAD_XREC_ROUNDTRIP
360
7E
  0
DICTIONARY
  5
7F
330
35
100
AcDbDictionary
280
     1
281
     1
  3
ACAD_XREC_ROUNDTRIP
360
80
  0
DICTIONARY
  5
87
330
39
100
AcDbDictionary
280
     1
281
     1
  3
ACAD_XREC_ROUNDTRIP
360
88
  0
DICTIONARY
  5
6B
330
2B
100
AcDbDictionary
280
     1
281
     1
  3
ACAD_XREC_ROUNDTRIP
360
6C
  0
DICTIONARY
  5
6D
330
2C
100
AcDbDictionary
280
     1
281
     1
  3
ACAD_XREC_ROUNDTRIP
360
6E
  0
DICTIONARY
  5
6F
330
2D
100
AcDbDictionary
280
     1
281
     1
  3
ACAD_XREC_ROUNDTRIP
360
70
  0
DICTIONARY
  5
71
330
2E
100
AcDbDictionary
280
     1
281
     1
  3
ACAD_XREC_ROUNDTRIP
360
72
  0
DICTIONARY
  5
85
330
38
100
AcDbDictionary
280
     1
281
     1
  3
ACAD_XREC_ROUNDTRIP
360
86
  0
DICTIONARY
  5
7B
330
33
100
AcDbDictionary
280
     1
281
     1
  3
ACAD_XREC_ROUNDTRIP
360
7C
  0
DICTIONARY
  5
83
330
37
100
AcDbDictionary
280
     1
281
     1
  3
ACAD_XREC_ROUNDTRIP
360
84
  0
XRECORD
  5
74
102
{ACAD_REACTORS
330
73
102
}
330
73
100
AcDbXrecord
280
     1
102
RTVSPropertyOp0
 70
     1
102
RTVSPropertyOp1
 70
     1
102
RTVSPropertyOp2
 70
     1
102
RTVSPropertyOp3
 70
     1
102
RTVSPropertyOp4
 70
     1
102
RTVSPropertyOp5
 70
     1
102
RTVSPropertyOp6
 70
     1
102
RTVSPropertyOp7
 70
     1
102
RTVSPropertyOp8
 70
     1
102
RTVSPropertyOp9
 70
     1
102
RTVSPropertyOp10
 70
     1
102
RTVSPropertyOp11
 70
     1
102
RTVSPropertyOp12
 70
     1
102
RTVSPropertyOp13
 70
     1
102
RTVSPropertyOp14
 70
     1
102
RTVSPropertyOp15
 70
     1
102
RTVSPropertyOp16
 70
     1
102
RTVSPropertyOp17
 70
     1
102
RTVSPropertyOp18
 70
     1
102
RTVSPropertyOp19
 70
     1
102
RTVSPropertyOp20
 70
     1
102
RTVSPropertyOp21
 70
     1
102
RTVSPropertyOp22
 70
     1
102
RTVSPropertyOp23
 70
     1
102
RTVSPropertyOp24
 70
     1
102
RTVSPropertyOp25
 70
     1
102
RTVSPropertyOp26
 70
     1
102
RTVSPropertyOp27
 70
     1
  0
XRECORD
  5
78
102
{ACAD_REACTORS
330
77
102
}
330
77
100
AcDbXrecord
280
     1
102
RTVSPropertyOp0
 70
     1
102
RTVSPropertyOp1
 70
     1
102
RTVSPropertyOp2
 70
     1
102
RTVSPropertyOp3
 70
     1
102
RTVSPropertyOp4
 70
     1
102
RTVSPropertyOp5
 70
     1
102
RTVSPropertyOp6
 70
     1
102
RTVSPropertyOp7
 70
     1
102
RTVSPropertyOp8
 70
     1
102
RTVSPropertyOp9
 70
     1
102
RTVSPropertyOp10
 70
     1
102
RTVSPropertyOp11
 70
     1
102
RTVSPropertyOp12
 70
     1
102
RTVSPropertyOp13
 70
     1
102
RTVSPropertyOp14
 70
     1
102
RTVSPropertyOp15
 70
     1
102
RTVSPropertyOp16
 70
     1
102
RTVSPropertyOp17
 70
     1
102
RTVSPropertyOp18
 70
     1
102
RTVSPropertyOp19
 70
     1
102
RTVSPropertyOp20
 70
     1
102
RTVSPropertyOp21
 70
     1
102
RTVSPropertyOp22
 70
     1
102
RTVSPropertyOp23
 70
     1
102
RTVSPropertyOp24
 70
     1
102
RTVSPropertyOp25
 70
     1
102
RTVSPropertyOp26
 70
     1
102
RTVSPropertyOp27
 70
     1
  0
XRECORD
  5
76
102
{ACAD_REACTORS
330
75
102
}
330
75
100
AcDbXrecord
280
     1
102
RTVSPropertyOp0
 70
     1
102
RTVSPropertyOp1
 70
     1
102
RTVSPropertyOp2
 70
     1
102
RTVSPropertyOp3
 70
     1
102
RTVSPropertyOp4
 70
     1
102
RTVSPropertyOp5
 70
     1
102
RTVSPropertyOp6
 70
     1
102
RTVSPropertyOp7
 70
     1
102
RTVSPropertyOp8
 70
     1
102
RTVSPropertyOp9
 70
     1
102
RTVSPropertyOp10
 70
     1
102
RTVSPropertyOp11
 70
     1
102
RTVSPropertyOp12
 70
     1
102
RTVSPropertyOp13
 70
     1
102
RTVSPropertyOp14
 70
     1
102
RTVSPropertyOp15
 70
     1
102
RTVSPropertyOp16
 70
     1
102
RTVSPropertyOp17
 70
     1
102
RTVSPropertyOp18
 70
     1
102
RTVSPropertyOp19
 70
     1
102
RTVSPropertyOp20
 70
     1
102
RTVSPropertyOp21
 70
     1
102
RTVSPropertyOp22
 70
     1
102
RTVSPropertyOp23
 70
     1
102
RTVSPropertyOp24
 70
     1
102
RTVSPropertyOp25
 70
     1
102
RTVSPropertyOp26
 70
     1
102
RTVSPropertyOp27
 70
     1
  0
XRECORD
  5
7A
102
{ACAD_REACTORS
330
79
102
}
330
79
100
AcDbXrecord
280
     1
102
RTVSPropertyOp0
 70
     1
102
RTVSPropertyOp1
 70
     1
102
RTVSPropertyOp2
 70
     1
102
RTVSPropertyOp3
 70
     1
102
RTVSPropertyOp4
 70
     1
102
RTVSPropertyOp5
 70
     1
102
RTVSPropertyOp6
 70
     1
102
RTVSPropertyOp7
 70
     1
102
RTVSPropertyOp8
 70
     1
102
RTVSPropertyOp9
 70
     1
102
RTVSPropertyOp10
 70
     1
102
RTVSPropertyOp11
 70
     1
102
RTVSPropertyOp12
 70
     1
102
RTVSPropertyOp13
 70
     1
102
RTVSPropertyOp14
 70
     1
102
RTVSPropertyOp15
 70
     1
102
RTVSPropertyOp16
 70
     1
102
RTVSPropertyOp17
 70
     1
102
RTVSPropertyOp18
 70
     1
102
RTVSPropertyOp19
 70
     1
102
RTVSPropertyOp20
 70
     1
102
RTVSPropertyOp21
 70
     1
102
RTVSPropertyOp22
 70
     1
102
RTVSPropertyOp23
 70
     1
102
RTVSPropertyOp24
 70
     1
102
RTVSPropertyOp25
 70
     1
102
RTVSPropertyOp26
 70
     1
102
RTVSPropertyOp27
 70
     1
  0
XRECORD
  5
82
102
{ACAD_REACTORS
330
81
102
}
330
81
100
AcDbXrecord
280
     1
102
RTVSPropertyOp0
 70
     1
102
RTVSPropertyOp1
 70
     1
102
RTVSPropertyOp2
 70
     1
102
RTVSPropertyOp3
 70
     1
102
RTVSPropertyOp4
 70
     1
102
RTVSPropertyOp5
 70
     1
102
RTVSPropertyOp6
 70
     1
102
RTVSPropertyOp7
 70
     1
102
RTVSPropertyOp8
 70
     1
102
RTVSPropertyOp9
 70
     1
102
RTVSPropertyOp10
 70
     1
102
RTVSPropertyOp11
 70
     1
102
RTVSPropertyOp12
 70
     1
102
RTVSPropertyOp13
 70
     1
102
RTVSPropertyOp14
 70
     1
102
RTVSPropertyOp15
 70
     1
102
RTVSPropertyOp16
 70
     1
102
RTVSPropertyOp17
 70
     1
102
RTVSPropertyOp18
 70
     1
102
RTVSPropertyOp19
 70
     1
102
RTVSPropertyOp20
 70
     1
102
RTVSPropertyOp21
 70
     1
102
RTVSPropertyOp22
 70
     1
102
RTVSPropertyOp23
 70
     1
102
RTVSPropertyOp24
 70
     1
102
RTVSPropertyOp25
 70
     1
102
RTVSPropertyOp26
 70
     1
102
RTVSPropertyOp27
 70
     1
  0
XRECORD
  5
8A
102
{ACAD_REACTORS
330
89
102
}
330
89
100
AcDbXrecord
280
     1
102
RTVSPropertyOp0
 70
     1
102
RTVSPropertyOp1
 70
     1
102
RTVSPropertyOp2
 70
     1
102
RTVSPropertyOp3
 70
     1
102
RTVSPropertyOp4
 70
     1
102
RTVSPropertyOp5
 70
     1
102
RTVSPropertyOp6
 70
     1
102
RTVSPropertyOp7
 70
     1
102
RTVSPropertyOp8
 70
     1
102
RTVSPropertyOp9
 70
     1
102
RTVSPropertyOp10
 70
     1
102
RTVSPropertyOp11
 70
     1
102
RTVSPropertyOp12
 70
     1
102
RTVSPropertyOp13
 70
     1
102
RTVSPropertyOp14
 70
     1
102
RTVSPropertyOp15
 70
     1
102
RTVSPropertyOp16
 70
     1
102
RTVSPropertyOp17
 70
     1
102
RTVSPropertyOp18
 70
     1
102
RTVSPropertyOp19
 70
     1
102
RTVSPropertyOp20
 70
     1
102
RTVSPropertyOp21
 70
     1
102
RTVSPropertyOp22
 70
     1
102
RTVSPropertyOp23
 70
     1
102
RTVSPropertyOp24
 70
     1
102
RTVSPropertyOp25
 70
     1
102
RTVSPropertyOp26
 70
     1
102
RTVSPropertyOp27
 70
     1
  0
XRECORD
  5
7E
102
{ACAD_REACTORS
330
7D
102
}
330
7D
100
AcDbXrecord
280
     1
102
RTVSPropertyOp0
 70
     1
102
RTVSPropertyOp1
 70
     1
102
RTVSPropertyOp2
 70
     1
102
RTVSPropertyOp3
 70
     1
102
RTVSPropertyOp4
 70
     1
102
RTVSPropertyOp5
 70
     1
102
RTVSPropertyOp6
 70
     1
102
RTVSPropertyOp7
 70
     1
102
RTVSPropertyOp8
 70
     1
102
RTVSPropertyOp9
 70
     1
102
RTVSPropertyOp10
 70
     1
102
RTVSPropertyOp11
 70
     1
102
RTVSPropertyOp12
 70
     1
102
RTVSPropertyOp13
 70
     1
102
RTVSPropertyOp14
 70
     1
102
RTVSPropertyOp15
 70
     1
102
RTVSPropertyOp16
 70
     1
102
RTVSPropertyOp17
 70
     1
102
RTVSPropertyOp18
 70
     1
102
RTVSPropertyOp19
 70
     1
102
RTVSPropertyOp20
 70
     1
102
RTVSPropertyOp21
 70
     1
102
RTVSPropertyOp22
 70
     1
102
RTVSPropertyOp23
 70
     1
102
RTVSPropertyOp24
 70
     1
102
RTVSPropertyOp25
 70
     1
102
RTVSPropertyOp26
 70
     1
102
RTVSPropertyOp27
 70
     1
  0
XRECORD
  5
80
102
{ACAD_REACTORS
330
7F
102
}
330
7F
100
AcDbXrecord
280
     1
102
RTVSPropertyOp0
 70
     1
102
RTVSPropertyOp1
 70
     1
102
RTVSPropertyOp2
 70
     1
102
RTVSPropertyOp3
 70
     1
102
RTVSPropertyOp4
 70
     1
102
RTVSPropertyOp5
 70
     1
102
RTVSPropertyOp6
 70
     1
102
RTVSPropertyOp7
 70
     1
102
RTVSPropertyOp8
 70
     1
102
RTVSPropertyOp9
 70
     1
102
RTVSPropertyOp10
 70
     1
102
RTVSPropertyOp11
 70
     1
102
RTVSPropertyOp12
 70
     1
102
RTVSPropertyOp13
 70
     1
102
RTVSPropertyOp14
 70
     1
102
RTVSPropertyOp15
 70
     1
102
RTVSPropertyOp16
 70
     1
102
RTVSPropertyOp17
 70
     1
102
RTVSPropertyOp18
 70
     1
102
RTVSPropertyOp19
 70
     1
102
RTVSPropertyOp20
 70
     1
102
RTVSPropertyOp21
 70
     1
102
RTVSPropertyOp22
 70
     1
102
RTVSPropertyOp23
 70
     1
102
RTVSPropertyOp24
 70
     1
102
RTVSPropertyOp25
 70
     1
102
RTVSPropertyOp26
 70
     1
102
RTVSPropertyOp27
 70
     1
  0
XRECORD
  5
88
102
{ACAD_REACTORS
330
87
102
}
330
87
100
AcDbXrecord
280
     1
102
RTVSPropertyOp0
 70
     1
102
RTVSPropertyOp1
 70
     1
102
RTVSPropertyOp2
 70
     1
102
RTVSPropertyOp3
 70
     1
102
RTVSPropertyOp4
 70
     1
102
RTVSPropertyOp5
 70
     1
102
RTVSPropertyOp6
 70
     1
102
RTVSPropertyOp7
 70
     1
102
RTVSPropertyOp8
 70
     1
102
RTVSPropertyOp9
 70
     1
102
RTVSPropertyOp10
 70
     1
102
RTVSPropertyOp11
 70
     1
102
RTVSPropertyOp12
 70
     1
102
RTVSPropertyOp13
 70
     1
102
RTVSPropertyOp14
 70
     1
102
RTVSPropertyOp15
 70
     1
102
RTVSPropertyOp16
 70
     1
102
RTVSPropertyOp17
 70
     1
102
RTVSPropertyOp18
 70
     1
102
RTVSPropertyOp19
 70
     1
102
RTVSPropertyOp20
 70
     1
102
RTVSPropertyOp21
 70
     1
102
RTVSPropertyOp22
 70
     1
102
RTVSPropertyOp23
 70
     1
102
RTVSPropertyOp24
 70
     1
102
RTVSPropertyOp25
 70
     1
102
RTVSPropertyOp26
 70
     1
102
RTVSPropertyOp27
 70
     1
  0
XRECORD
  5
6C
102
{ACAD_REACTORS
330
6B
102
}
330
6B
100
AcDbXrecord
280
     1
102
RTVSPropertyOp0
 70
     1
102
RTVSPropertyOp1
 70
     1
102
RTVSPropertyOp2
 70
     1
102
RTVSPropertyOp3
 70
     1
102
RTVSPropertyOp4
 70
     1
102
RTVSPropertyOp5
 70
     1
102
RTVSPropertyOp6
 70
     1
102
RTVSPropertyOp7
 70
     1
102
RTVSPropertyOp8
 70
     1
102
RTVSPropertyOp9
 70
     1
102
RTVSPropertyOp10
 70
     1
102
RTVSPropertyOp11
 70
     1
102
RTVSPropertyOp12
 70
     1
102
RTVSPropertyOp13
 70
     1
102
RTVSPropertyOp14
 70
     1
102
RTVSPropertyOp15
 70
     1
102
RTVSPropertyOp16
 70
     1
102
RTVSPropertyOp17
 70
     1
102
RTVSPropertyOp18
 70
     1
102
RTVSPropertyOp19
 70
     1
102
RTVSPropertyOp20
 70
     1
102
RTVSPropertyOp21
 70
     1
102
RTVSPropertyOp22
 70
     1
102
RTVSPropertyOp23
 70
     1
102
RTVSPropertyOp24
 70
     1
102
RTVSPropertyOp25
 70
     1
102
RTVSPropertyOp26
 70
     1
102
RTVSPropertyOp27
 70
     1
  0
XRECORD
  5
6E
102
{ACAD_REACTORS
330
6D
102
}
330
6D
100
AcDbXrecord
280
     1
102
RTVSPropertyOp0
 70
     1
102
RTVSPropertyOp1
 70
     1
102
RTVSPropertyOp2
 70
     1
102
RTVSPropertyOp3
 70
     1
102
RTVSPropertyOp4
 70
     1
102
RTVSPropertyOp5
 70
     1
102
RTVSPropertyOp6
 70
     1
102
RTVSPropertyOp7
 70
     1
102
RTVSPropertyOp8
 70
     1
102
RTVSPropertyOp9
 70
     1
102
RTVSPropertyOp10
 70
     1
102
RTVSPropertyOp11
 70
     1
102
RTVSPropertyOp12
 70
     1
102
RTVSPropertyOp13
 70
     1
102
RTVSPropertyOp14
 70
     1
102
RTVSPropertyOp15
 70
     1
102
RTVSPropertyOp16
 70
     1
102
RTVSPropertyOp17
 70
     1
102
RTVSPropertyOp18
 70
     1
102
RTVSPropertyOp19
 70
     1
102
RTVSPropertyOp20
 70
     1
102
RTVSPropertyOp21
 70
     1
102
RTVSPropertyOp22
 70
     1
102
RTVSPropertyOp23
 70
     1
102
RTVSPropertyOp24
 70
     1
102
RTVSPropertyOp25
 70
     1
102
RTVSPropertyOp26
 70
     1
102
RTVSPropertyOp27
 70
     1
  0
XRECORD
  5
70
102
{ACAD_REACTORS
330
6F
102
}
330
6F
100
AcDbXrecord
280
     1
102
RTVSPropertyOp0
 70
     1
102
RTVSPropertyOp1
 70
     1
102
RTVSPropertyOp2
 70
     1
102
RTVSPropertyOp3
 70
     1
102
RTVSPropertyOp4
 70
     1
102
RTVSPropertyOp5
 70
     1
102
RTVSPropertyOp6
 70
     1
102
RTVSPropertyOp7
 70
     1
102
RTVSPropertyOp8
 70
     1
102
RTVSPropertyOp9
 70
     1
102
RTVSPropertyOp10
 70
     1
102
RTVSPropertyOp11
 70
     1
102
RTVSPropertyOp12
 70
     1
102
RTVSPropertyOp13
 70
     1
102
RTVSPropertyOp14
 70
     1
102
RTVSPropertyOp15
 70
     1
102
RTVSPropertyOp16
 70
     1
102
RTVSPropertyOp17
 70
     1
102
RTVSPropertyOp18
 70
     1
102
RTVSPropertyOp19
 70
     1
102
RTVSPropertyOp20
 70
     1
102
RTVSPropertyOp21
 70
     1
102
RTVSPropertyOp22
 70
     1
102
RTVSPropertyOp23
 70
     1
102
RTVSPropertyOp24
 70
     1
102
RTVSPropertyOp25
 70
     1
102
RTVSPropertyOp26
 70
     1
102
RTVSPropertyOp27
 70
     1
  0
XRECORD
  5
72
102
{ACAD_REACTORS
330
71
102
}
330
71
100
AcDbXrecord
280
     1
102
RTVSPropertyOp0
 70
     1
102
RTVSPropertyOp1
 70
     1
102
RTVSPropertyOp2
 70
     1
102
RTVSPropertyOp3
 70
     1
102
RTVSPropertyOp4
 70
     1
102
RTVSPropertyOp5
 70
     1
102
RTVSPropertyOp6
 70
     1
102
RTVSPropertyOp7
 70
     1
102
RTVSPropertyOp8
 70
     1
102
RTVSPropertyOp9
 70
     1
102
RTVSPropertyOp10
 70
     1
102
RTVSPropertyOp11
 70
     1
102
RTVSPropertyOp12
 70
     1
102
RTVSPropertyOp13
 70
     1
102
RTVSPropertyOp14
 70
     1
102
RTVSPropertyOp15
 70
     1
102
RTVSPropertyOp16
 70
     1
102
RTVSPropertyOp17
 70
     1
102
RTVSPropertyOp18
 70
     1
102
RTVSPropertyOp19
 70
     1
102
RTVSPropertyOp20
 70
     1
102
RTVSPropertyOp21
 70
     1
102
RTVSPropertyOp22
 70
     1
102
RTVSPropertyOp23
 70
     1
102
RTVSPropertyOp24
 70
     1
102
RTVSPropertyOp25
 70
     1
102
RTVSPropertyOp26
 70
     1
102
RTVSPropertyOp27
 70
     1
  0
XRECORD
  5
86
102
{ACAD_REACTORS
330
85
102
}
330
85
100
AcDbXrecord
280
     1
102
RTVSPropertyOp0
 70
     1
102
RTVSPropertyOp1
 70
     1
102
RTVSPropertyOp2
 70
     1
102
RTVSPropertyOp3
 70
     1
102
RTVSPropertyOp4
 70
     1
102
RTVSPropertyOp5
 70
     1
102
RTVSPropertyOp6
 70
     1
102
RTVSPropertyOp7
 70
     1
102
RTVSPropertyOp8
 70
     1
102
RTVSPropertyOp9
 70
     1
102
RTVSPropertyOp10
 70
     1
102
RTVSPropertyOp11
 70
     1
102
RTVSPropertyOp12
 70
     1
102
RTVSPropertyOp13
 70
     1
102
RTVSPropertyOp14
 70
     1
102
RTVSPropertyOp15
 70
     1
102
RTVSPropertyOp16
 70
     1
102
RTVSPropertyOp17
 70
     1
102
RTVSPropertyOp18
 70
     1
102
RTVSPropertyOp19
 70
     1
102
RTVSPropertyOp20
 70
     1
102
RTVSPropertyOp21
 70
     1
102
RTVSPropertyOp22
 70
     1
102
RTVSPropertyOp23
 70
     1
102
RTVSPropertyOp24
 70
     1
102
RTVSPropertyOp25
 70
     1
102
RTVSPropertyOp26
 70
     1
102
RTVSPropertyOp27
 70
     1
  0
XRECORD
  5
7C
102
{ACAD_REACTORS
330
7B
102
}
330
7B
100
AcDbXrecord
280
     1
102
RTVSPropertyOp0
 70
     1
102
RTVSPropertyOp1
 70
     1
102
RTVSPropertyOp2
 70
     1
102
RTVSPropertyOp3
 70
     1
102
RTVSPropertyOp4
 70
     1
102
RTVSPropertyOp5
 70
     1
102
RTVSPropertyOp6
 70
     1
102
RTVSPropertyOp7
 70
     1
102
RTVSPropertyOp8
 70
     1
102
RTVSPropertyOp9
 70
     1
102
RTVSPropertyOp10
 70
     1
102
RTVSPropertyOp11
 70
     1
102
RTVSPropertyOp12
 70
     1
102
RTVSPropertyOp13
 70
     1
102
RTVSPropertyOp14
 70
     1
102
RTVSPropertyOp15
 70
     1
102
RTVSPropertyOp16
 70
     1
102
RTVSPropertyOp17
 70
     1
102
RTVSPropertyOp18
 70
     1
102
RTVSPropertyOp19
 70
     1
102
RTVSPropertyOp20
 70
     1
102
RTVSPropertyOp21
 70
     1
102
RTVSPropertyOp22
 70
     1
102
RTVSPropertyOp23
 70
     1
102
RTVSPropertyOp24
 70
     1
102
RTVSPropertyOp25
 70
     1
102
RTVSPropertyOp26
 70
     1
102
RTVSPropertyOp27
 70
     1
  0
XRECORD
  5
84
102
{ACAD_REACTORS
330
83
102
}
330
83
100
AcDbXrecord
280
     1
102
RTVSPropertyOp0
 70
     1
102
RTVSPropertyOp1
 70
     1
102
RTVSPropertyOp2
 70
     1
102
RTVSPropertyOp3
 70
     1
102
RTVSPropertyOp4
 70
     1
102
RTVSPropertyOp5
 70
     1
102
RTVSPropertyOp6
 70
     1
102
RTVSPropertyOp7
 70
     1
102
RTVSPropertyOp8
 70
     1
102
RTVSPropertyOp9
 70
     1
102
RTVSPropertyOp10
 70
     1
102
RTVSPropertyOp11
 70
     1
102
RTVSPropertyOp12
 70
     1
102
RTVSPropertyOp13
 70
     1
102
RTVSPropertyOp14
 70
     1
102
RTVSPropertyOp15
 70
     1
102
RTVSPropertyOp16
 70
     1
102
RTVSPropertyOp17
 70
     1
102
RTVSPropertyOp18
 70
     1
102
RTVSPropertyOp19
 70
     1
102
RTVSPropertyOp20
 70
     1
102
RTVSPropertyOp21
 70
     1
102
RTVSPropertyOp22
 70
     1
102
RTVSPropertyOp23
 70
     1
102
RTVSPropertyOp24
 70
     1
102
RTVSPropertyOp25
 70
     1
102
RTVSPropertyOp26
 70
     1
102
RTVSPropertyOp27
 70
     1
  0
ENDSEC
  0
EOF
