  0
SECTION
  2
HEADER
  9
$ACADVER
  1
AC1014
  9
$HANDSEED
  5
FFFF
  9
$MEASUREMENT
 70
     1
  0
ENDSEC
  0
SECTION
  2
TABLES
  0
TABLE
  2
VPORT
  5
8
330
0
100
AcDbSymbolTable
 70
     4
  0
VPORT
  5
2E
330
8
100
AcDbSymbolTableRecord
100
AcDbViewportTableRecord
  2
*ACTIVE
 70
     0
 10
0.0
 20
0.0
 11
1.0
 21
1.0
 12
210.0
 22
148.5
 13
0.0
 23
0.0
 14
10.0
 24
10.0
 15
10.0
 25
10.0
 16
0.0
 26
0.0
 36
1.0
 17
0.0
 27
0.0
 37
0.0
 40
341.0
 41
1.24
 42
50.0
 43
0.0
 44
0.0
 50
0.0
 51
0.0
 71
     0
 72
   100
 73
     1
 74
     3
 75
     0
 76
     0
 77
     0
 78
     0
  0
ENDTAB
  0
TABLE
  2
LTYPE
  5
5
330
0
100
AcDbSymbolTable
 70
     1
  0
LTYPE
  5
14
330
5
100
AcDbSymbolTableRecord
100
AcDbLinetypeTableRecord
  2
BYBLOCK
 70
     0
  3

 72
    65
 73
     0
 40
0.0
  0
LTYPE
  5
15
330
5
100
AcDbSymbolTableRecord
100
AcDbLinetypeTableRecord
  2
BYLAYER
 70
     0
  3

 72
    65
 73
     0
 40
0.0
  0
LTYPE
  5
16
330
5
100
AcDbSymbolTableRecord
100
AcDbLinetypeTableRecord
  2
CONTINUOUS
 70
     0
  3
Solid line
 72
    65
 73
     0
 40
0.0
  0
ENDTAB
  0
TABLE
  2
LAYER
  5
2
100
AcDbSymbolTable
 70
1
  0
LAYER
  5
50
100
AcDbSymbolTableRecord
100
AcDbLayerTableRecord
  2
0
 70
0
  6
CONTINUOUS
  0
ENDTAB
  0
TABLE
  2
STYLE
  5
3
330
0
100
AcDbSymbolTable
 70
     1
  0
STYLE
  5
11
330
3
100
AcDbSymbolTableRecord
100
AcDbTextStyleTableRecord
  2
STANDARD
 70
     0
 40
0.0
 41
1.0
 50
0.0
 71
     0
 42
2.5
  3
txt
  4

  0
ENDTAB
  0
TABLE
  2
VIEW
  5
6
330
0
100
AcDbSymbolTable
 70
     0
  0
ENDTAB
  0
TABLE
  2
UCS
  5
7
330
0
100
AcDbSymbolTable
 70
     0
  0
ENDTAB
  0
TABLE
  2
APPID
  5
9
330
0
100
AcDbSymbolTable
 70
     2
  0
APPID
  5
12
330
9
100
AcDbSymbolTableRecord
100
AcDbRegAppTableRecord
  2
ACAD
 70
     0
  0
ENDTAB
  0
TABLE
  2
DIMSTYLE
  5
A
330
0
100
AcDbSymbolTable
 70
     1
  0
DIMSTYLE
105
27
330
A
100
AcDbSymbolTableRecord
100
AcDbDimStyleTableRecord
  2
ISO-25
 70
     0
  3

  4

  5

  6

  7

 40
1.0
 41
2.5
 42
0.625
 43
3.75
 44
1.25
 45
0.0
 46
0.0
 47
0.0
 48
0.0
140
2.5
141
2.5
142
0.0
143
0.03937007874016
144
1.0
145
0.0
146
1.0
147
0.625
 71
     0
 72
     0
 73
     0
 74
     0
 75
     0
 76
     0
 77
     1
 78
     8
170
     0
171
     3
172
     1
173
     0
174
     0
175
     0
176
     0
177
     0
178
     0
270
     2
271
     2
272
     2
273
     2
274
     3
340
11
275
     0
280
     0
281
     0
282
     0
283
     0
284
     8
285
     0
286
     0
287
     3
288
     0
  0
ENDTAB
  0
TABLE
  2
BLOCK_RECORD
  5
1
330
0
100
AcDbSymbolTable
 70
     1
  0
BLOCK_RECORD
  5
1F
330
1
100
AcDbSymbolTableRecord
100
AcDbBlockTableRecord
  2
*MODEL_SPACE
  0
BLOCK_RECORD
  5
1B
330
1
100
AcDbSymbolTableRecord
100
AcDbBlockTableRecord
  2
*PAPER_SPACE
  0
ENDTAB
  0
ENDSEC
  0
SECTION
  2
BLOCKS
  0
BLOCK
  5
20
330
1F
100
AcDbEntity
  8
0
100
AcDbBlockBegin
  2
*MODEL_SPACE
 70
     0
 10
0.0
 20
0.0
 30
0.0
  3
*MODEL_SPACE
  1

  0
ENDBLK
  5
21
330
1F
100
AcDbEntity
  8
0
100
AcDbBlockEnd
  0
BLOCK
  5
1C
330
1B
100
AcDbEntity
 67
     1
  8
0
100
AcDbBlockBegin
  2
*PAPER_SPACE
  1

  0
ENDBLK
  5
1D
330
1B
100
AcDbEntity
 67
     1
  8
0
100
AcDbBlockEnd
  0
ENDSEC
  0
SECTION
  2
ENTITIES
  0
LWPOLYLINE
  5
100
100
AcDbEntity
  8
0
 62
7
100
AcDbPolyline
 90
4
 70
1
 10
0.000000
 20
337.500013
 30
0.0
 10
0.000000
 20
0.000000
 30
0.0
 10
352.500009
 20
0.000000
 30
0.0
 10
352.500009
 20
337.500013
 30
0.0
  0
SPLINE
  5
101
100
AcDbEntity
  8
0
 62
7
100
AcDbSpline
 70
8
 71
3
 72
8
 73
4
 74
0
 40
0
 40
0
 40
0
 40
0
 40
1
 40
1
 40
1
 40
1
 10
137.670752
 20
310.754792
 30
0.0
 10
136.229540
 20
310.229647
 30
0.0
 10
134.232597
 20
309.967074
 30
0.0
 10
131.680056
 20
309.967074
 30
0.0
  0
LWPOLYLINE
  5
102
100
AcDbEntity
  8
0
 62
7
100
AcDbPolyline
 90
13
 70
0
 10
69.538427
 20
334.325648
 30
0.0
 10
75.291077
 20
335.196101
 30
0.0
 10
76.091468
 20
329.564947
 30
0.0
 10
78.759606
 20
330.048923
 30
0.0
 10
79.104384
 20
335.909338
 30
0.0
 10
81.754504
 20
335.994084
 30
0.0
 10
82.536665
 20
333.049589
 30
0.0
 10
84.653702
 20
333.009002
 30
0.0
 10
84.217510
 20
336.513091
 30
0.0
 10
122.956188
 20
337.241568
 30
0.0
 10
124.832613
 20
291.942679
 30
0.0
 10
137.670752
 20
306.518627
 30
0.0
 10
137.670752
 20
310.754792
 30
0.0
  0
SPLINE
  5
103
100
AcDbEntity
  8
0
 62
7
100
AcDbSpline
 70
8
 71
3
 72
8
 73
4
 74
0
 40
0
 40
0
 40
0
 40
0
 40
1
 40
1
 40
1
 40
1
 10
131.680056
 20
314.064676
 30
0.0
 10
135.686033
 20
314.064676
 30
0.0
 10
137.976081
 20
315.573013
 30
0.0
 10
138.550121
 20
318.589739
 30
0.0
  0
LWPOLYLINE
  5
104
100
AcDbEntity
  8
0
 62
7
100
AcDbPolyline
 90
2
 70
0
 10
131.680056
 20
309.967074
 30
0.0
 10
131.680056
 20
314.064676
 30
0.0
  0
SPLINE
  5
105
100
AcDbEntity
  8
0
 62
7
100
AcDbSpline
 70
8
 71
3
 72
8
 73
4
 74
0
 40
0
 40
0
 40
0
 40
0
 40
1
 40
1
 40
1
 40
1
 10
147.467690
 20
317.641658
 30
0.0
 10
146.572420
 20
322.723140
 30
0.0
 10
150.098019
 20
325.932985
 30
0.0
 10
155.395877
 20
327.983400
 30
0.0
  0
SPLINE
  5
106
100
AcDbEntity
  8
0
 62
7
100
AcDbSpline
 70
8
 71
3
 72
8
 73
4
 74
0
 40
0
 40
0
 40
0
 40
0
 40
1
 40
1
 40
1
 40
1
 10
155.395877
 20
327.983400
 30
0.0
 10
156.770996
 20
324.313815
 30
0.0
 10
155.123621
 20
320.395812
 30
0.0
 10
152.130310
 20
318.133148
 30
0.0
  0
SPLINE
  5
107
100
AcDbEntity
  8
0
 62
7
100
AcDbSpline
 70
8
 71
3
 72
8
 73
4
 74
0
 40
0
 40
0
 40
0
 40
0
 40
1
 40
1
 40
1
 40
1
 10
152.130310
 20
318.133148
 30
0.0
 10
155.300257
 20
318.238135
 30
0.0
 10
158.595827
 20
316.665531
 30
0.0
 10
160.435422
 20
313.871028
 30
0.0
  0
SPLINE
  5
108
100
AcDbEntity
  8
0
 62
7
100
AcDbSpline
 70
8
 71
3
 72
8
 73
4
 74
0
 40
0
 40
0
 40
0
 40
0
 40
1
 40
1
 40
1
 40
1
 10
160.435422
 20
313.871028
 30
0.0
 10
156.676275
 20
310.439858
 30
0.0
 10
152.728136
 20
311.077901
 30
0.0
 10
148.944224
 20
313.818773
 30
0.0
  0
LWPOLYLINE
  5
109
100
AcDbEntity
  8
0
 62
7
100
AcDbPolyline
 90
4
 70
0
 10
138.550121
 20
318.589739
 30
0.0
 10
142.537789
 20
318.589739
 30
0.0
 10
142.537789
 20
312.044477
 30
0.0
 10
147.467690
 20
317.641658
 30
0.0
  0
SPLINE
  5
10a
100
AcDbEntity
  8
0
 62
7
100
AcDbSpline
 70
8
 71
3
 72
8
 73
4
 74
0
 40
0
 40
0
 40
0
 40
0
 40
1
 40
1
 40
1
 40
1
 10
142.537789
 20
301.626164
 30
0.0
 10
144.704858
 20
301.263315
 30
0.0
 10
146.964532
 20
300.703218
 30
0.0
 10
149.212723
 20
300.054460
 30
0.0
  0
SPLINE
  5
10b
100
AcDbEntity
  8
0
 62
7
100
AcDbSpline
 70
8
 71
3
 72
8
 73
4
 74
0
 40
0
 40
0
 40
0
 40
0
 40
1
 40
1
 40
1
 40
1
 10
149.212723
 20
300.054460
 30
0.0
 10
148.287978
 20
303.183607
 30
0.0
 10
150.195306
 20
305.853227
 30
0.0
 10
153.356628
 20
308.089221
 30
0.0
  0
SPLINE
  5
10c
100
AcDbEntity
  8
0
 62
7
100
AcDbSpline
 70
8
 71
3
 72
8
 73
4
 74
0
 40
0
 40
0
 40
0
 40
0
 40
1
 40
1
 40
1
 40
1
 10
153.356628
 20
308.089221
 30
0.0
 10
155.318169
 20
305.251750
 30
0.0
 10
154.281214
 20
301.392378
 30
0.0
 10
151.685255
 20
299.307620
 30
0.0
  0
SPLINE
  5
10d
100
AcDbEntity
  8
0
 62
7
100
AcDbSpline
 70
8
 71
3
 72
8
 73
4
 74
0
 40
0
 40
0
 40
0
 40
0
 40
1
 40
1
 40
1
 40
1
 10
151.685255
 20
299.307620
 30
0.0
 10
154.192340
 20
298.519744
 30
0.0
 10
156.636217
 20
297.669850
 30
0.0
 10
158.867845
 20
296.912850
 30
0.0
  0
SPLINE
  5
10e
100
AcDbEntity
  8
0
 62
7
100
AcDbSpline
 70
8
 71
3
 72
8
 73
4
 74
0
 40
0
 40
0
 40
0
 40
0
 40
1
 40
1
 40
1
 40
1
 10
158.867845
 20
296.912850
 30
0.0
 10
158.712905
 20
301.686463
 30
0.0
 10
162.400800
 20
304.477817
 30
0.0
 10
167.644419
 20
306.082726
 30
0.0
  0
SPLINE
  5
10f
100
AcDbEntity
  8
0
 62
7
100
AcDbSpline
 70
8
 71
3
 72
8
 73
4
 74
0
 40
0
 40
0
 40
0
 40
0
 40
1
 40
1
 40
1
 40
1
 10
167.644419
 20
306.082726
 30
0.0
 10
168.805119
 20
302.139376
 30
0.0
 10
166.659534
 20
298.162954
 30
0.0
 10
163.258050
 20
296.170297
 30
0.0
  0
SPLINE
  5
110
100
AcDbEntity
  8
0
 62
7
100
AcDbSpline
 70
8
 71
3
 72
8
 73
4
 74
0
 40
0
 40
0
 40
0
 40
0
 40
1
 40
1
 40
1
 40
1
 10
163.258050
 20
296.170297
 30
0.0
 10
165.737937
 20
295.428538
 30
0.0
 10
167.632274
 20
293.115921
 30
0.0
 10
169.093647
 20
290.023656
 30
0.0
  0
SPLINE
  5
111
100
AcDbEntity
  8
0
 62
7
100
AcDbSpline
 70
8
 71
3
 72
8
 73
4
 74
0
 40
0
 40
0
 40
0
 40
0
 40
1
 40
1
 40
1
 40
1
 10
169.093647
 20
290.023656
 30
0.0
 10
168.956090
 20
289.960500
 30
0.0
 10
168.817713
 20
289.902530
 30
0.0
 10
168.678675
 20
289.849586
 30
0.0
  0
SPLINE
  5
112
100
AcDbEntity
  8
0
 62
7
100
AcDbSpline
 70
8
 71
3
 72
8
 73
4
 74
0
 40
0
 40
0
 40
0
 40
0
 40
1
 40
1
 40
1
 40
1
 10
168.678675
 20
289.849586
 30
0.0
 10
168.867746
 20
289.793945
 30
0.0
 10
169.052637
 20
289.732746
 30
0.0
 10
169.233374
 20
289.665992
 30
0.0
  0
SPLINE
  5
113
100
AcDbEntity
  8
0
 62
7
100
AcDbSpline
 70
8
 71
3
 72
8
 73
4
 74
0
 40
0
 40
0
 40
0
 40
0
 40
1
 40
1
 40
1
 40
1
 10
169.233374
 20
289.665992
 30
0.0
 10
170.302132
 20
289.262926
 30
0.0
 10
171.205869
 20
288.719498
 30
0.0
 10
171.932626
 20
288.017188
 30
0.0
  0
SPLINE
  5
114
100
AcDbEntity
  8
0
 62
7
100
AcDbSpline
 70
8
 71
3
 72
8
 73
4
 74
0
 40
0
 40
0
 40
0
 40
0
 40
1
 40
1
 40
1
 40
1
 10
171.932626
 20
288.017188
 30
0.0
 10
172.659305
 20
287.321043
 30
0.0
 10
173.214983
 20
286.496628
 30
0.0
 10
173.593575
 20
285.550054
 30
0.0
  0
SPLINE
  5
115
100
AcDbEntity
  8
0
 62
7
100
AcDbSpline
 70
8
 71
3
 72
8
 73
4
 74
0
 40
0
 40
0
 40
0
 40
0
 40
1
 40
1
 40
1
 40
1
 10
173.593575
 20
285.550054
 30
0.0
 10
173.978332
 20
284.603560
 30
0.0
 10
174.167615
 20
283.571500
 30
0.0
 10
174.167615
 20
282.466203
 30
0.0
  0
SPLINE
  5
116
100
AcDbEntity
  8
0
 62
7
100
AcDbSpline
 70
8
 71
3
 72
8
 73
4
 74
0
 40
0
 40
0
 40
0
 40
0
 40
1
 40
1
 40
1
 40
1
 10
174.167615
 20
282.466203
 30
0.0
 10
174.167615
 20
281.452426
 30
0.0
 10
174.033312
 20
280.512017
 30
0.0
 10
173.758490
 20
279.644925
 30
0.0
  0
SPLINE
  5
117
100
AcDbEntity
  8
0
 62
7
100
AcDbSpline
 70
8
 71
3
 72
8
 73
4
 74
0
 40
0
 40
0
 40
0
 40
0
 40
1
 40
1
 40
1
 40
1
 10
173.758490
 20
279.644925
 30
0.0
 10
173.483693
 20
278.783865
 30
0.0
 10
173.068430
 20
277.959476
 30
0.0
 10
172.524896
 20
277.183876
 30
0.0
  0
SPLINE
  5
118
100
AcDbEntity
  8
0
 62
7
100
AcDbSpline
 70
8
 71
3
 72
8
 73
4
 74
0
 40
0
 40
0
 40
0
 40
0
 40
1
 40
1
 40
1
 40
1
 10
172.524896
 20
277.183876
 30
0.0
 10
172.011975
 20
276.469449
 30
0.0
 10
171.236402
 20
275.614447
 30
0.0
 10
170.204395
 20
274.619111
 30
0.0
  0
SPLINE
  5
119
100
AcDbEntity
  8
0
 62
7
100
AcDbSpline
 70
8
 71
3
 72
8
 73
4
 74
0
 40
0
 40
0
 40
0
 40
0
 40
1
 40
1
 40
1
 40
1
 10
170.204395
 20
274.619111
 30
0.0
 10
169.172334
 20
273.623643
 30
0.0
 10
167.914346
 20
272.500064
 30
0.0
 10
166.424319
 20
271.248161
 30
0.0
  0
SPLINE
  5
11a
100
AcDbEntity
  8
0
 62
7
100
AcDbSpline
 70
8
 71
3
 72
8
 73
4
 74
0
 40
0
 40
0
 40
0
 40
0
 40
1
 40
1
 40
1
 40
1
 10
166.424319
 20
271.248161
 30
0.0
 10
165.538864
 20
270.497035
 30
0.0
 10
164.781600
 20
269.831423
 30
0.0
 10
164.140436
 20
269.251298
 30
0.0
  0
SPLINE
  5
11b
100
AcDbEntity
  8
0
 62
7
100
AcDbSpline
 70
8
 71
3
 72
8
 73
4
 74
0
 40
0
 40
0
 40
0
 40
0
 40
1
 40
1
 40
1
 40
1
 10
164.140436
 20
269.251298
 30
0.0
 10
163.505330
 20
268.671172
 30
0.0
 10
163.029000
 20
268.206987
 30
0.0
 10
162.717533
 20
267.846757
 30
0.0
  0
LWPOLYLINE
  5
11c
100
AcDbEntity
  8
0
 62
7
100
AcDbPolyline
 90
3
 70
0
 10
148.944224
 20
313.818773
 30
0.0
 10
142.537789
 20
306.281640
 30
0.0
 10
142.537789
 20
301.626164
 30
0.0
  0
SPLINE
  5
11d
100
AcDbEntity
  8
0
 62
7
100
AcDbSpline
 70
8
 71
3
 72
8
 73
4
 74
0
 40
0
 40
0
 40
0
 40
0
 40
1
 40
1
 40
1
 40
1
 10
172.537729
 20
263.303332
 30
0.0
 10
173.870990
 20
261.950782
 30
0.0
 10
174.870666
 20
260.233451
 30
0.0
 10
175.371972
 20
258.359566
 30
0.0
  0
SPLINE
  5
11e
100
AcDbEntity
  8
0
 62
7
100
AcDbSpline
 70
8
 71
3
 72
8
 73
4
 74
0
 40
0
 40
0
 40
0
 40
0
 40
1
 40
1
 40
1
 40
1
 10
175.371972
 20
258.359566
 30
0.0
 10
175.690054
 20
258.384225
 30
0.0
 10
176.013216
 20
258.396608
 30
0.0
 10
176.341723
 20
258.396608
 30
0.0
  0
SPLINE
  5
11f
100
AcDbEntity
  8
0
 62
7
100
AcDbSpline
 70
8
 71
3
 72
8
 73
4
 74
0
 40
0
 40
0
 40
0
 40
0
 40
1
 40
1
 40
1
 40
1
 10
176.341723
 20
258.396608
 30
0.0
 10
177.866014
 20
258.396608
 30
0.0
 10
179.246239
 20
258.176633
 30
0.0
 10
180.482399
 20
257.729196
 30
0.0
  0
SPLINE
  5
120
100
AcDbEntity
  8
0
 62
7
100
AcDbSpline
 70
8
 71
3
 72
8
 73
4
 74
0
 40
0
 40
0
 40
0
 40
0
 40
1
 40
1
 40
1
 40
1
 10
180.482399
 20
257.729196
 30
0.0
 10
181.718479
 20
257.289379
 30
0.0
 10
182.780252
 20
256.667476
 30
0.0
 10
183.659912
 20
255.863646
 30
0.0
  0
SPLINE
  5
121
100
AcDbEntity
  8
0
 62
7
100
AcDbSpline
 70
8
 71
3
 72
8
 73
4
 74
0
 40
0
 40
0
 40
0
 40
0
 40
1
 40
1
 40
1
 40
1
 10
183.659912
 20
255.863646
 30
0.0
 10
184.539678
 20
255.067356
 30
0.0
 10
185.222171
 20
254.111786
 30
0.0
 10
185.692362
 20
253.012205
 30
0.0
  0
SPLINE
  5
122
100
AcDbEntity
  8
0
 62
7
100
AcDbSpline
 70
8
 71
3
 72
8
 73
4
 74
0
 40
0
 40
0
 40
0
 40
0
 40
1
 40
1
 40
1
 40
1
 10
185.692362
 20
253.012205
 30
0.0
 10
186.170094
 20
251.904976
 30
0.0
 10
186.405229
 20
250.691571
 30
0.0
 10
186.405229
 20
249.379581
 30
0.0
  0
SPLINE
  5
123
100
AcDbEntity
  8
0
 62
7
100
AcDbSpline
 70
8
 71
3
 72
8
 73
4
 74
0
 40
0
 40
0
 40
0
 40
0
 40
1
 40
1
 40
1
 40
1
 10
186.405229
 20
249.379581
 30
0.0
 10
186.405229
 20
248.188956
 30
0.0
 10
186.154960
 20
247.043787
 30
0.0
 10
185.646907
 20
245.944205
 30
0.0
  0
SPLINE
  5
124
100
AcDbEntity
  8
0
 62
7
100
AcDbSpline
 70
8
 71
3
 72
8
 73
4
 74
0
 40
0
 40
0
 40
0
 40
0
 40
1
 40
1
 40
1
 40
1
 10
185.646907
 20
245.944205
 30
0.0
 10
185.146341
 20
244.836976
 30
0.0
 10
184.380373
 20
243.889001
 30
0.0
 10
183.341486
 20
243.092711
 30
0.0
  0
SPLINE
  5
125
100
AcDbEntity
  8
0
 62
7
100
AcDbSpline
 70
8
 71
3
 72
8
 73
4
 74
0
 40
0
 40
0
 40
0
 40
0
 40
1
 40
1
 40
1
 40
1
 10
183.341486
 20
243.092711
 30
0.0
 10
184.850537
 20
242.319175
 30
0.0
 10
186.003300
 20
241.227160
 30
0.0
 10
186.791997
 20
239.808994
 30
0.0
  0
SPLINE
  5
126
100
AcDbEntity
  8
0
 62
7
100
AcDbSpline
 70
8
 71
3
 72
8
 73
4
 74
0
 40
0
 40
0
 40
0
 40
0
 40
1
 40
1
 40
1
 40
1
 10
186.791997
 20
239.808994
 30
0.0
 10
187.588287
 20
238.398394
 30
0.0
 10
187.982622
 20
236.798273
 30
0.0
 10
187.982622
 20
235.023686
 30
0.0
  0
SPLINE
  5
127
100
AcDbEntity
  8
0
 62
7
100
AcDbSpline
 70
8
 71
3
 72
8
 73
4
 74
0
 40
0
 40
0
 40
0
 40
0
 40
1
 40
1
 40
1
 40
1
 10
187.982622
 20
235.023686
 30
0.0
 10
187.982622
 20
233.453861
 30
0.0
 10
187.694464
 20
232.020533
 30
0.0
 10
187.118096
 20
230.716137
 30
0.0
  0
SPLINE
  5
128
100
AcDbEntity
  8
0
 62
7
100
AcDbSpline
 70
8
 71
3
 72
8
 73
4
 74
0
 40
0
 40
0
 40
0
 40
0
 40
1
 40
1
 40
1
 40
1
 10
187.118096
 20
230.716137
 30
0.0
 10
186.541728
 20
229.411742
 30
0.0
 10
185.745438
 20
228.289353
 30
0.0
 10
184.729279
 20
227.349024
 30
0.0
  0
SPLINE
  5
129
100
AcDbEntity
  8
0
 62
7
100
AcDbSpline
 70
8
 71
3
 72
8
 73
4
 74
0
 40
0
 40
0
 40
0
 40
0
 40
1
 40
1
 40
1
 40
1
 10
184.729279
 20
227.349024
 30
0.0
 10
183.713014
 20
226.408589
 30
0.0
 10
182.522389
 20
225.680561
 30
0.0
 10
181.149757
 20
225.157295
 30
0.0
  0
SPLINE
  5
12a
100
AcDbEntity
  8
0
 62
7
100
AcDbSpline
 70
8
 71
3
 72
8
 73
4
 74
0
 40
0
 40
0
 40
0
 40
0
 40
1
 40
1
 40
1
 40
1
 10
181.149757
 20
225.157295
 30
0.0
 10
179.784666
 20
224.641595
 30
0.0
 10
178.305910
 20
224.383732
 30
0.0
 10
176.720844
 20
224.383732
 30
0.0
  0
SPLINE
  5
12b
100
AcDbEntity
  8
0
 62
7
100
AcDbSpline
 70
8
 71
3
 72
8
 73
4
 74
0
 40
0
 40
0
 40
0
 40
0
 40
1
 40
1
 40
1
 40
1
 10
176.720844
 20
224.383732
 30
0.0
 10
175.127259
 20
224.383732
 30
0.0
 10
173.661520
 20
224.632070
 30
0.0
 10
172.338683
 20
225.143483
 30
0.0
  0
SPLINE
  5
12c
100
AcDbEntity
  8
0
 62
7
100
AcDbSpline
 70
8
 71
3
 72
8
 73
4
 74
0
 40
0
 40
0
 40
0
 40
0
 40
1
 40
1
 40
1
 40
1
 10
172.338683
 20
225.143483
 30
0.0
 10
170.360393
 20
221.362826
 30
0.0
 10
166.467605
 20
218.635659
 30
0.0
 10
161.472298
 20
216.680415
 30
0.0
  0
SPLINE
  5
12d
100
AcDbEntity
  8
0
 62
7
100
AcDbSpline
 70
8
 71
3
 72
8
 73
4
 74
0
 40
0
 40
0
 40
0
 40
0
 40
1
 40
1
 40
1
 40
1
 10
161.472298
 20
216.680415
 30
0.0
 10
165.533388
 20
214.501651
 30
0.0
 10
166.122668
 20
210.861910
 30
0.0
 10
166.371746
 20
207.196134
 30
0.0
  0
LWPOLYLINE
  5
12e
100
AcDbEntity
  8
0
 62
7
100
AcDbPolyline
 90
4
 70
0
 10
162.717533
 20
267.846757
 30
0.0
 10
174.240904
 20
267.846757
 30
0.0
 10
174.240904
 20
263.303332
 30
0.0
 10
172.537729
 20
263.303332
 30
0.0
  0
SPLINE
  5
12f
100
AcDbEntity
  8
0
 62
7
100
AcDbSpline
 70
8
 71
3
 72
8
 73
4
 74
0
 40
0
 40
0
 40
0
 40
0
 40
1
 40
1
 40
1
 40
1
 10
163.703106
 20
203.309194
 30
0.0
 10
159.735679
 20
205.243430
 30
0.0
 10
156.750517
 20
209.483722
 30
0.0
 10
157.146440
 20
215.646609
 30
0.0
  0
LWPOLYLINE
  5
130
100
AcDbEntity
  8
0
 62
7
100
AcDbPolyline
 90
13
 70
0
 10
166.371746
 20
207.196134
 30
0.0
 10
167.762185
 20
209.221149
 30
0.0
 10
171.572687
 20
209.221149
 30
0.0
 10
171.572687
 20
192.708609
 30
0.0
 10
174.931414
 20
192.708609
 30
0.0
 10
174.931414
 20
188.311737
 30
0.0
 10
171.572687
 20
188.311737
 30
0.0
 10
171.572687
 20
182.351627
 30
0.0
 10
166.705650
 20
182.351627
 30
0.0
 10
166.705650
 20
188.311737
 30
0.0
 10
156.043339
 20
188.311737
 30
0.0
 10
156.043339
 20
192.152852
 30
0.0
 10
163.703106
 20
203.309194
 30
0.0
  0
SPLINE
  5
131
100
AcDbEntity
  8
0
 62
7
100
AcDbSpline
 70
8
 71
3
 72
8
 73
4
 74
0
 40
0
 40
0
 40
0
 40
0
 40
1
 40
1
 40
1
 40
1
 10
155.582699
 20
217.351663
 30
0.0
 10
141.695488
 20
216.685654
 30
0.0
 10
132.198454
 20
214.687653
 30
0.0
 10
130.563911
 20
209.032660
 30
0.0
  0
SPLINE
  5
132
100
AcDbEntity
  8
0
 62
7
100
AcDbSpline
 70
8
 71
3
 72
8
 73
4
 74
0
 40
0
 40
0
 40
0
 40
0
 40
1
 40
1
 40
1
 40
1
 10
130.563911
 20
209.032660
 30
0.0
 10
130.637465
 20
203.261330
 30
0.0
 10
131.616080
 20
197.040474
 30
0.0
 10
126.940575
 20
189.074875
 30
0.0
  0
SPLINE
  5
133
100
AcDbEntity
  8
0
 62
7
100
AcDbSpline
 70
8
 71
3
 72
8
 73
4
 74
0
 40
0
 40
0
 40
0
 40
0
 40
1
 40
1
 40
1
 40
1
 10
126.940575
 20
189.074875
 30
0.0
 10
131.560200
 20
190.298335
 30
0.0
 10
137.548885
 20
192.675007
 30
0.0
 10
141.953483
 20
195.082504
 30
0.0
  0
SPLINE
  5
134
100
AcDbEntity
  8
0
 62
7
100
AcDbSpline
 70
8
 71
3
 72
8
 73
4
 74
0
 40
0
 40
0
 40
0
 40
0
 40
1
 40
1
 40
1
 40
1
 10
141.953483
 20
195.082504
 30
0.0
 10
139.363503
 20
197.551675
 30
0.0
 10
138.859498
 20
201.945531
 30
0.0
 10
141.510597
 20
204.505057
 30
0.0
  0
SPLINE
  5
135
100
AcDbEntity
  8
0
 62
7
100
AcDbSpline
 70
8
 71
3
 72
8
 73
4
 74
0
 40
0
 40
0
 40
0
 40
0
 40
1
 40
1
 40
1
 40
1
 10
141.510597
 20
204.505057
 30
0.0
 10
143.986488
 20
201.884862
 30
0.0
 10
145.312209
 20
199.108510
 30
0.0
 10
144.210537
 20
196.410765
 30
0.0
  0
SPLINE
  5
136
100
AcDbEntity
  8
0
 62
7
100
AcDbSpline
 70
8
 71
3
 72
8
 73
4
 74
0
 40
0
 40
0
 40
0
 40
0
 40
1
 40
1
 40
1
 40
1
 10
144.210537
 20
196.410765
 30
0.0
 10
145.397485
 20
197.170437
 30
0.0
 10
146.368638
 20
197.912329
 30
0.0
 10
147.026101
 20
198.599637
 30
0.0
  0
LWPOLYLINE
  5
137
100
AcDbEntity
  8
0
 62
7
100
AcDbPolyline
 90
2
 70
0
 10
157.146440
 20
215.646609
 30
0.0
 10
155.582699
 20
217.351663
 30
0.0
  0
SPLINE
  5
138
100
AcDbEntity
  8
0
 62
7
100
AcDbSpline
 70
8
 71
3
 72
8
 73
4
 74
0
 40
0
 40
0
 40
0
 40
0
 40
1
 40
1
 40
1
 40
1
 10
147.730051
 20
194.822551
 30
0.0
 10
142.433622
 20
193.116756
 30
0.0
 10
138.297761
 20
191.006862
 30
0.0
 10
137.256308
 20
188.246570
 30
0.0
  0
LWPOLYLINE
  5
139
100
AcDbEntity
  8
0
 62
7
100
AcDbPolyline
 90
2
 70
0
 10
147.026101
 20
198.599637
 30
0.0
 10
147.730051
 20
194.822551
 30
0.0
  0
SPLINE
  5
13a
100
AcDbEntity
  8
0
 62
7
100
AcDbSpline
 70
8
 71
3
 72
8
 73
4
 74
0
 40
0
 40
0
 40
0
 40
0
 40
1
 40
1
 40
1
 40
1
 10
155.385161
 20
173.960340
 30
0.0
 10
158.923038
 20
176.466235
 30
0.0
 10
164.287359
 20
176.024487
 30
0.0
 10
167.583591
 20
172.857239
 30
0.0
  0
SPLINE
  5
13b
100
AcDbEntity
  8
0
 62
7
100
AcDbSpline
 70
8
 71
3
 72
8
 73
4
 74
0
 40
0
 40
0
 40
0
 40
0
 40
1
 40
1
 40
1
 40
1
 10
167.583591
 20
172.857239
 30
0.0
 10
165.065260
 20
169.236919
 30
0.0
 10
161.761435
 20
168.459097
 30
0.0
 10
158.143813
 20
169.410539
 30
0.0
  0
SPLINE
  5
13c
100
AcDbEntity
  8
0
 62
7
100
AcDbSpline
 70
8
 71
3
 72
8
 73
4
 74
0
 40
0
 40
0
 40
0
 40
0
 40
1
 40
1
 40
1
 40
1
 10
158.143813
 20
169.410539
 30
0.0
 10
160.118319
 20
166.866385
 30
0.0
 10
160.830974
 20
163.249663
 30
0.0
 10
159.704484
 20
160.048522
 30
0.0
  0
SPLINE
  5
13d
100
AcDbEntity
  8
0
 62
7
100
AcDbSpline
 70
8
 71
3
 72
8
 73
4
 74
0
 40
0
 40
0
 40
0
 40
0
 40
1
 40
1
 40
1
 40
1
 10
159.704484
 20
160.048522
 30
0.0
 10
153.717837
 20
161.142389
 30
0.0
 10
152.037759
 20
165.839114
 30
0.0
 10
152.517158
 20
171.800626
 30
0.0
  0
SPLINE
  5
13e
100
AcDbEntity
  8
0
 62
7
100
AcDbSpline
 70
8
 71
3
 72
8
 73
4
 74
0
 40
0
 40
0
 40
0
 40
0
 40
1
 40
1
 40
1
 40
1
 10
152.517158
 20
171.800626
 30
0.0
 10
149.440265
 20
174.084086
 30
0.0
 10
145.778934
 20
176.327858
 30
0.0
 10
142.081726
 20
178.222804
 30
0.0
  0
LWPOLYLINE
  5
13f
100
AcDbEntity
  8
0
 62
7
100
AcDbPolyline
 90
7
 70
0
 10
137.256308
 20
188.246570
 30
0.0
 10
138.257862
 20
185.757397
 30
0.0
 10
142.627112
 20
182.747946
 30
0.0
 10
149.759855
 20
182.747946
 30
0.0
 10
149.759855
 20
178.222804
 30
0.0
 10
149.196663
 20
178.222804
 30
0.0
 10
155.385161
 20
173.960340
 30
0.0
  0
SPLINE
  5
140
100
AcDbEntity
  8
0
 62
7
100
AcDbSpline
 70
8
 71
3
 72
8
 73
4
 74
0
 40
0
 40
0
 40
0
 40
0
 40
1
 40
1
 40
1
 40
1
 10
138.725037
 20
173.624478
 30
0.0
 10
139.750959
 20
174.113031
 30
0.0
 10
140.972328
 20
174.357321
 30
0.0
 10
142.389066
 20
174.357321
 30
0.0
  0
SPLINE
  5
141
100
AcDbEntity
  8
0
 62
7
100
AcDbSpline
 70
8
 71
3
 72
8
 73
4
 74
0
 40
0
 40
0
 40
0
 40
0
 40
1
 40
1
 40
1
 40
1
 10
142.389066
 20
174.357321
 30
0.0
 10
143.512725
 20
174.357321
 30
0.0
 10
144.593627
 20
174.149702
 30
0.0
 10
145.631694
 20
173.728301
 30
0.0
  0
SPLINE
  5
142
100
AcDbEntity
  8
0
 62
7
100
AcDbSpline
 70
8
 71
3
 72
8
 73
4
 74
0
 40
0
 40
0
 40
0
 40
0
 40
1
 40
1
 40
1
 40
1
 10
145.631694
 20
173.728301
 30
0.0
 10
146.669839
 20
173.313011
 30
0.0
 10
147.579741
 20
172.714576
 30
0.0
 10
148.367538
 20
171.939003
 30
0.0
  0
SPLINE
  5
143
100
AcDbEntity
  8
0
 62
7
100
AcDbSpline
 70
8
 71
3
 72
8
 73
4
 74
0
 40
0
 40
0
 40
0
 40
0
 40
1
 40
1
 40
1
 40
1
 10
148.367538
 20
171.939003
 30
0.0
 10
149.155362
 20
171.163509
 30
0.0
 10
149.784303
 20
170.229160
 30
0.0
 10
150.254467
 20
169.142198
 30
0.0
  0
SPLINE
  5
144
100
AcDbEntity
  8
0
 62
7
100
AcDbSpline
 70
8
 71
3
 72
8
 73
4
 74
0
 40
0
 40
0
 40
0
 40
0
 40
1
 40
1
 40
1
 40
1
 10
150.254467
 20
169.142198
 30
0.0
 10
150.724738
 20
168.049072
 30
0.0
 10
150.962863
 20
166.827676
 30
0.0
 10
150.962863
 20
165.484201
 30
0.0
  0
SPLINE
  5
145
100
AcDbEntity
  8
0
 62
7
100
AcDbSpline
 70
8
 71
3
 72
8
 73
4
 74
0
 40
0
 40
0
 40
0
 40
0
 40
1
 40
1
 40
1
 40
1
 10
150.962863
 20
165.484201
 30
0.0
 10
150.962863
 20
164.110220
 30
0.0
 10
150.743020
 20
162.833950
 30
0.0
 10
150.297303
 20
161.655310
 30
0.0
  0
SPLINE
  5
146
100
AcDbEntity
  8
0
 62
7
100
AcDbSpline
 70
8
 71
3
 72
8
 73
4
 74
0
 40
0
 40
0
 40
0
 40
0
 40
1
 40
1
 40
1
 40
1
 10
150.297303
 20
161.655310
 30
0.0
 10
149.857566
 20
160.470612
 30
0.0
 10
149.228545
 20
159.444690
 30
0.0
 10
148.410295
 20
158.577545
 30
0.0
  0
SPLINE
  5
147
100
AcDbEntity
  8
0
 62
7
100
AcDbSpline
 70
8
 71
3
 72
8
 73
4
 74
0
 40
0
 40
0
 40
0
 40
0
 40
1
 40
1
 40
1
 40
1
 10
148.410295
 20
158.577545
 30
0.0
 10
147.591965
 20
157.704234
 30
0.0
 10
146.608800
 20
157.020313
 30
0.0
 10
145.460773
 20
156.525701
 30
0.0
  0
SPLINE
  5
148
100
AcDbEntity
  8
0
 62
7
100
AcDbSpline
 70
8
 71
3
 72
8
 73
4
 74
0
 40
0
 40
0
 40
0
 40
0
 40
1
 40
1
 40
1
 40
1
 10
145.460773
 20
156.525701
 30
0.0
 10
144.306608
 20
156.031062
 30
0.0
 10
143.024172
 20
155.786799
 30
0.0
 10
141.601269
 20
155.786799
 30
0.0
  0
SPLINE
  5
149
100
AcDbEntity
  8
0
 62
7
100
AcDbSpline
 70
8
 71
3
 72
8
 73
4
 74
0
 40
0
 40
0
 40
0
 40
0
 40
1
 40
1
 40
1
 40
1
 10
141.601269
 20
155.786799
 30
0.0
 10
140.459328
 20
155.786799
 30
0.0
 10
139.378425
 20
155.963858
 30
0.0
 10
138.364727
 20
156.311944
 30
0.0
  0
SPLINE
  5
14a
100
AcDbEntity
  8
0
 62
7
100
AcDbSpline
 70
8
 71
3
 72
8
 73
4
 74
0
 40
0
 40
0
 40
0
 40
0
 40
1
 40
1
 40
1
 40
1
 10
138.364727
 20
156.311944
 30
0.0
 10
137.351029
 20
156.666168
 30
0.0
 10
136.447213
 20
157.197451
 30
0.0
 10
135.653330
 20
157.905847
 30
0.0
  0
SPLINE
  5
14b
100
AcDbEntity
  8
0
 62
7
100
AcDbSpline
 70
8
 71
3
 72
8
 73
4
 74
0
 40
0
 40
0
 40
0
 40
0
 40
1
 40
1
 40
1
 40
1
 10
135.653330
 20
157.905847
 30
0.0
 10
134.859448
 20
158.614136
 30
0.0
 10
134.206059
 20
159.505729
 30
0.0
 10
133.686973
 20
160.568349
 30
0.0
  0
SPLINE
  5
14c
100
AcDbEntity
  8
0
 62
7
100
AcDbSpline
 70
8
 71
3
 72
8
 73
4
 74
0
 40
0
 40
0
 40
0
 40
0
 40
1
 40
1
 40
1
 40
1
 10
133.686973
 20
160.568349
 30
0.0
 10
133.167887
 20
161.637001
 30
0.0
 10
132.838190
 20
162.894989
 30
0.0
 10
132.691584
 20
164.336201
 30
0.0
  0
LWPOLYLINE
  5
14d
100
AcDbEntity
  8
0
 62
7
100
AcDbPolyline
 90
3
 70
0
 10
142.081726
 20
178.222804
 30
0.0
 10
139.079261
 20
178.222804
 30
0.0
 10
138.725037
 20
173.624478
 30
0.0
  0
SPLINE
  5
14e
100
AcDbEntity
  8
0
 62
7
100
AcDbSpline
 70
8
 71
3
 72
8
 73
4
 74
0
 40
0
 40
0
 40
0
 40
0
 40
1
 40
1
 40
1
 40
1
 10
137.668582
 20
164.336201
 30
0.0
 10
137.754069
 20
163.585075
 30
0.0
 10
137.912845
 20
162.931660
 30
0.0
 10
138.151050
 20
162.369844
 30
0.0
  0
SPLINE
  5
14f
100
AcDbEntity
  8
0
 62
7
100
AcDbSpline
 70
8
 71
3
 72
8
 73
4
 74
0
 40
0
 40
0
 40
0
 40
0
 40
1
 40
1
 40
1
 40
1
 10
138.151050
 20
162.369844
 30
0.0
 10
138.389175
 20
161.808001
 30
0.0
 10
138.682280
 20
161.343922
 30
0.0
 10
139.030340
 20
160.971389
 30
0.0
  0
SPLINE
  5
150
100
AcDbEntity
  8
0
 62
7
100
AcDbSpline
 70
8
 71
3
 72
8
 73
4
 74
0
 40
0
 40
0
 40
0
 40
0
 40
1
 40
1
 40
1
 40
1
 10
139.030340
 20
160.971389
 30
0.0
 10
139.372340
 20
160.605020
 30
0.0
 10
139.769321
 20
160.330145
 30
0.0
 10
140.208979
 20
160.153059
 30
0.0
  0
SPLINE
  5
151
100
AcDbEntity
  8
0
 62
7
100
AcDbSpline
 70
8
 71
3
 72
8
 73
4
 74
0
 40
0
 40
0
 40
0
 40
0
 40
1
 40
1
 40
1
 40
1
 10
140.208979
 20
160.153059
 30
0.0
 10
140.648690
 20
159.969835
 30
0.0
 10
141.112796
 20
159.884348
 30
0.0
 10
141.601269
 20
159.884348
 30
0.0
  0
SPLINE
  5
152
100
AcDbEntity
  8
0
 62
7
100
AcDbSpline
 70
8
 71
3
 72
8
 73
4
 74
0
 40
0
 40
0
 40
0
 40
0
 40
1
 40
1
 40
1
 40
1
 10
141.601269
 20
159.884348
 30
0.0
 10
142.260823
 20
159.884348
 30
0.0
 10
142.859337
 20
160.018730
 30
0.0
 10
143.390541
 20
160.293526
 30
0.0
  0
SPLINE
  5
153
100
AcDbEntity
  8
0
 62
7
100
AcDbSpline
 70
8
 71
3
 72
8
 73
4
 74
0
 40
0
 40
0
 40
0
 40
0
 40
1
 40
1
 40
1
 40
1
 10
143.390541
 20
160.293526
 30
0.0
 10
143.927936
 20
160.568349
 30
0.0
 10
144.392094
 20
160.946941
 30
0.0
 10
144.770713
 20
161.429409
 30
0.0
  0
SPLINE
  5
154
100
AcDbEntity
  8
0
 62
7
100
AcDbSpline
 70
8
 71
3
 72
8
 73
4
 74
0
 40
0
 40
0
 40
0
 40
0
 40
1
 40
1
 40
1
 40
1
 10
144.770713
 20
161.429409
 30
0.0
 10
145.155444
 20
161.911824
 30
0.0
 10
145.448549
 20
162.473640
 30
0.0
 10
145.668365
 20
163.120970
 30
0.0
  0
SPLINE
  5
155
100
AcDbEntity
  8
0
 62
7
100
AcDbSpline
 70
8
 71
3
 72
8
 73
4
 74
0
 40
0
 40
0
 40
0
 40
0
 40
1
 40
1
 40
1
 40
1
 10
145.668365
 20
163.120970
 30
0.0
 10
145.882122
 20
163.762134
 30
0.0
 10
145.985918
 20
164.458280
 30
0.0
 10
145.985918
 20
165.197261
 30
0.0
  0
SPLINE
  5
156
100
AcDbEntity
  8
0
 62
7
100
AcDbSpline
 70
8
 71
3
 72
8
 73
4
 74
0
 40
0
 40
0
 40
0
 40
0
 40
1
 40
1
 40
1
 40
1
 10
145.985918
 20
165.197261
 30
0.0
 10
145.985918
 20
165.948307
 30
0.0
 10
145.882122
 20
166.620084
 30
0.0
 10
145.668365
 20
167.218519
 30
0.0
  0
SPLINE
  5
157
100
AcDbEntity
  8
0
 62
7
100
AcDbSpline
 70
8
 71
3
 72
8
 73
4
 74
0
 40
0
 40
0
 40
0
 40
0
 40
1
 40
1
 40
1
 40
1
 10
145.668365
 20
167.218519
 30
0.0
 10
145.448549
 20
167.810868
 30
0.0
 10
145.149305
 20
168.317783
 30
0.0
 10
144.752325
 20
168.739132
 30
0.0
  0
SPLINE
  5
158
100
AcDbEntity
  8
0
 62
7
100
AcDbSpline
 70
8
 71
3
 72
8
 73
4
 74
0
 40
0
 40
0
 40
0
 40
0
 40
1
 40
1
 40
1
 40
1
 10
144.752325
 20
168.739132
 30
0.0
 10
144.361588
 20
169.154343
 30
0.0
 10
143.891318
 20
169.478034
 30
0.0
 10
143.347810
 20
169.704015
 30
0.0
  0
SPLINE
  5
159
100
AcDbEntity
  8
0
 62
7
100
AcDbSpline
 70
8
 71
3
 72
8
 73
4
 74
0
 40
0
 40
0
 40
0
 40
0
 40
1
 40
1
 40
1
 40
1
 10
143.347810
 20
169.704015
 30
0.0
 10
142.804277
 20
169.929916
 30
0.0
 10
142.205842
 20
170.045936
 30
0.0
 10
141.552454
 20
170.045936
 30
0.0
  0
SPLINE
  5
15a
100
AcDbEntity
  8
0
 62
7
100
AcDbSpline
 70
8
 71
3
 72
8
 73
4
 74
0
 40
0
 40
0
 40
0
 40
0
 40
1
 40
1
 40
1
 40
1
 10
141.552454
 20
170.045936
 30
0.0
 10
140.013531
 20
170.045936
 30
0.0
 10
138.627300
 20
169.355876
 30
0.0
 10
137.399845
 20
167.988006
 30
0.0
  0
LWPOLYLINE
  5
15b
100
AcDbEntity
  8
0
 62
7
100
AcDbPolyline
 90
2
 70
0
 10
132.691584
 20
164.336201
 30
0.0
 10
137.668582
 20
164.336201
 30
0.0
  0
SPLINE
  5
15c
100
AcDbEntity
  8
0
 62
7
100
AcDbSpline
 70
8
 71
3
 72
8
 73
4
 74
0
 40
0
 40
0
 40
0
 40
0
 40
1
 40
1
 40
1
 40
1
 10
134.686437
 20
181.498505
 30
0.0
 10
131.719505
 20
182.585572
 30
0.0
 10
128.993847
 20
183.270763
 30
0.0
 10
126.845854
 20
183.363526
 30
0.0
  0
SPLINE
  5
15d
100
AcDbEntity
  8
0
 62
7
100
AcDbSpline
 70
8
 71
3
 72
8
 73
4
 74
0
 40
0
 40
0
 40
0
 40
0
 40
1
 40
1
 40
1
 40
1
 10
126.845854
 20
183.363526
 30
0.0
 10
127.703633
 20
170.449743
 30
0.0
 10
129.358125
 20
155.160610
 30
0.0
 10
131.100221
 20
141.688053
 30
0.0
  0
SPLINE
  5
15e
100
AcDbEntity
  8
0
 62
7
100
AcDbSpline
 70
8
 71
3
 72
8
 73
4
 74
0
 40
0
 40
0
 40
0
 40
0
 40
1
 40
1
 40
1
 40
1
 10
131.100221
 20
141.688053
 30
0.0
 10
118.788603
 20
136.302618
 30
0.0
 10
105.366741
 20
136.393502
 30
0.0
 10
91.269529
 20
139.142258
 30
0.0
  0
SPLINE
  5
15f
100
AcDbEntity
  8
0
 62
7
100
AcDbSpline
 70
8
 71
3
 72
8
 73
4
 74
0
 40
0
 40
0
 40
0
 40
0
 40
1
 40
1
 40
1
 40
1
 10
91.269529
 20
139.142258
 30
0.0
 10
91.783879
 20
143.797443
 30
0.0
 10
86.786614
 20
144.872710
 30
0.0
 10
86.450620
 20
139.785699
 30
0.0
  0
LWPOLYLINE
  5
160
100
AcDbEntity
  8
0
 62
7
100
AcDbPolyline
 90
3
 70
0
 10
137.399845
 20
167.988006
 30
0.0
 10
133.607625
 20
167.988006
 30
0.0
 10
134.686437
 20
181.498505
 30
0.0
  0
SPLINE
  5
161
100
AcDbEntity
  8
0
 62
7
100
AcDbSpline
 70
8
 71
3
 72
8
 73
4
 74
0
 40
0
 40
0
 40
0
 40
0
 40
1
 40
1
 40
1
 40
1
 10
84.581471
 20
139.701164
 30
0.0
 10
86.740788
 20
152.635955
 30
0.0
 10
75.820349
 20
150.286217
 30
0.0
 10
80.581579
 20
139.701244
 30
0.0
  0
LWPOLYLINE
  5
162
100
AcDbEntity
  8
0
 62
7
100
AcDbPolyline
 90
2
 70
0
 10
86.450620
 20
139.785699
 30
0.0
 10
84.581471
 20
139.701164
 30
0.0
  0
SPLINE
  5
163
100
AcDbEntity
  8
0
 62
7
100
AcDbSpline
 70
8
 71
3
 72
8
 73
4
 74
0
 40
0
 40
0
 40
0
 40
0
 40
1
 40
1
 40
1
 40
1
 10
78.884542
 20
139.730480
 30
0.0
 10
79.046467
 20
144.558623
 30
0.0
 10
74.943229
 20
144.072901
 30
0.0
 10
74.748231
 20
140.473218
 30
0.0
  0
LWPOLYLINE
  5
164
100
AcDbEntity
  8
0
 62
7
100
AcDbPolyline
 90
2
 70
0
 10
80.581579
 20
139.701244
 30
0.0
 10
78.884542
 20
139.730480
 30
0.0
  0
SPLINE
  5
165
100
AcDbEntity
  8
0
 62
7
100
AcDbSpline
 70
8
 71
3
 72
8
 73
4
 74
0
 40
0
 40
0
 40
0
 40
0
 40
1
 40
1
 40
1
 40
1
 10
70.927436
 20
141.176269
 30
0.0
 10
72.045592
 20
154.137095
 30
0.0
 10
77.084185
 20
172.484045
 30
0.0
 10
69.429233
 20
178.522524
 30
0.0
  0
LWPOLYLINE
  5
166
100
AcDbEntity
  8
0
 62
7
100
AcDbPolyline
 90
2
 70
0
 10
74.748231
 20
140.473218
 30
0.0
 10
70.927436
 20
141.176269
 30
0.0
  0
SPLINE
  5
167
100
AcDbEntity
  8
0
 62
7
100
AcDbSpline
 70
8
 71
3
 72
8
 73
4
 74
0
 40
0
 40
0
 40
0
 40
0
 40
1
 40
1
 40
1
 40
1
 10
53.367517
 20
178.009074
 30
0.0
 10
52.591203
 20
172.824696
 30
0.0
 10
47.998354
 20
169.647605
 30
0.0
 10
41.752811
 20
167.727842
 30
0.0
  0
SPLINE
  5
168
100
AcDbEntity
  8
0
 62
7
100
AcDbSpline
 70
8
 71
3
 72
8
 73
4
 74
0
 40
0
 40
0
 40
0
 40
0
 40
1
 40
1
 40
1
 40
1
 10
41.752811
 20
167.727842
 30
0.0
 10
40.172402
 20
173.073086
 30
0.0
 10
43.137746
 20
178.468576
 30
0.0
 10
47.793381
 20
181.101312
 30
0.0
  0
SPLINE
  5
169
100
AcDbEntity
  8
0
 62
7
100
AcDbSpline
 70
8
 71
3
 72
8
 73
4
 74
0
 40
0
 40
0
 40
0
 40
0
 40
1
 40
1
 40
1
 40
1
 10
47.793381
 20
181.101312
 30
0.0
 10
45.260313
 20
181.561661
 30
0.0
 10
42.899330
 20
182.778453
 30
0.0
 10
41.074049
 20
184.505124
 30
0.0
  0
SPLINE
  5
16a
100
AcDbEntity
  8
0
 62
7
100
AcDbSpline
 70
8
 71
3
 72
8
 73
4
 74
0
 40
0
 40
0
 40
0
 40
0
 40
1
 40
1
 40
1
 40
1
 10
41.074049
 20
184.505124
 30
0.0
 10
40.984937
 20
184.419452
 30
0.0
 10
40.893444
 20
184.335605
 30
0.0
 10
40.799411
 20
184.253875
 30
0.0
  0
SPLINE
  5
16b
100
AcDbEntity
  8
0
 62
7
100
AcDbSpline
 70
8
 71
3
 72
8
 73
4
 74
0
 40
0
 40
0
 40
0
 40
0
 40
1
 40
1
 40
1
 40
1
 10
40.799411
 20
184.253875
 30
0.0
 10
40.011588
 20
183.563789
 30
0.0
 10
39.052870
 20
183.032559
 30
0.0
 10
37.941462
 20
182.653887
 30
0.0
  0
SPLINE
  5
16c
100
AcDbEntity
  8
0
 62
7
100
AcDbSpline
 70
8
 71
3
 72
8
 73
4
 74
0
 40
0
 40
0
 40
0
 40
0
 40
1
 40
1
 40
1
 40
1
 10
37.941462
 20
182.653887
 30
0.0
 10
36.823888
 20
182.275295
 30
0.0
 10
35.590348
 20
182.092150
 30
0.0
 10
34.246873
 20
182.092150
 30
0.0
  0
SPLINE
  5
16d
100
AcDbEntity
  8
0
 62
7
100
AcDbSpline
 70
8
 71
3
 72
8
 73
4
 74
0
 40
0
 40
0
 40
0
 40
0
 40
1
 40
1
 40
1
 40
1
 10
34.246873
 20
182.092150
 30
0.0
 10
32.909484
 20
182.092150
 30
0.0
 10
31.688167
 20
182.275295
 30
0.0
 10
30.576758
 20
182.653887
 30
0.0
  0
SPLINE
  5
16e
100
AcDbEntity
  8
0
 62
7
100
AcDbSpline
 70
8
 71
3
 72
8
 73
4
 74
0
 40
0
 40
0
 40
0
 40
0
 40
1
 40
1
 40
1
 40
1
 10
30.576758
 20
182.653887
 30
0.0
 10
29.465323
 20
183.032559
 30
0.0
 10
28.518750
 20
183.563789
 30
0.0
 10
27.724867
 20
184.253875
 30
0.0
  0
SPLINE
  5
16f
100
AcDbEntity
  8
0
 62
7
100
AcDbSpline
 70
8
 71
3
 72
8
 73
4
 74
0
 40
0
 40
0
 40
0
 40
0
 40
1
 40
1
 40
1
 40
1
 10
27.724867
 20
184.253875
 30
0.0
 10
26.931011
 20
184.943935
 30
0.0
 10
26.314268
 20
185.774409
 30
0.0
 10
25.874557
 20
186.733206
 30
0.0
  0
SPLINE
  5
170
100
AcDbEntity
  8
0
 62
7
100
AcDbSpline
 70
8
 71
3
 72
8
 73
4
 74
0
 40
0
 40
0
 40
0
 40
0
 40
1
 40
1
 40
1
 40
1
 10
25.874557
 20
186.733206
 30
0.0
 10
25.428760
 20
187.691951
 30
0.0
 10
25.208918
 20
188.760603
 30
0.0
 10
25.208918
 20
189.945301
 30
0.0
  0
SPLINE
  5
171
100
AcDbEntity
  8
0
 62
7
100
AcDbSpline
 70
8
 71
3
 72
8
 73
4
 74
0
 40
0
 40
0
 40
0
 40
0
 40
1
 40
1
 40
1
 40
1
 10
25.208918
 20
189.945301
 30
0.0
 10
25.208918
 20
191.301026
 30
0.0
 10
25.569227
 20
192.528455
 30
0.0
 10
26.289820
 20
193.609357
 30
0.0
  0
SPLINE
  5
172
100
AcDbEntity
  8
0
 62
7
100
AcDbSpline
 70
8
 71
3
 72
8
 73
4
 74
0
 40
0
 40
0
 40
0
 40
0
 40
1
 40
1
 40
1
 40
1
 10
26.289820
 20
193.609357
 30
0.0
 10
27.016498
 20
194.696345
 30
0.0
 10
28.121848
 20
195.661201
 30
0.0
 10
29.611876
 20
196.510063
 30
0.0
  0
SPLINE
  5
173
100
AcDbEntity
  8
0
 62
7
100
AcDbSpline
 70
8
 71
3
 72
8
 73
4
 74
0
 40
0
 40
0
 40
0
 40
0
 40
1
 40
1
 40
1
 40
1
 10
29.611876
 20
196.510063
 30
0.0
 10
28.500440
 20
197.334452
 30
0.0
 10
27.651604
 20
198.250440
 30
0.0
 10
27.059255
 20
199.258052
 30
0.0
  0
SPLINE
  5
174
100
AcDbEntity
  8
0
 62
7
100
AcDbSpline
 70
8
 71
3
 72
8
 73
4
 74
0
 40
0
 40
0
 40
0
 40
0
 40
1
 40
1
 40
1
 40
1
 10
27.059255
 20
199.258052
 30
0.0
 10
26.473044
 20
200.265691
 30
0.0
 10
26.173800
 20
201.346594
 30
0.0
 10
26.173800
 20
202.500759
 30
0.0
  0
SPLINE
  5
175
100
AcDbEntity
  8
0
 62
7
100
AcDbSpline
 70
8
 71
3
 72
8
 73
4
 74
0
 40
0
 40
0
 40
0
 40
0
 40
1
 40
1
 40
1
 40
1
 10
26.173800
 20
202.500759
 30
0.0
 10
26.173800
 20
203.520543
 30
0.0
 10
26.375334
 20
204.454892
 30
0.0
 10
26.766150
 20
205.309814
 30
0.0
  0
SPLINE
  5
176
100
AcDbEntity
  8
0
 62
7
100
AcDbSpline
 70
8
 71
3
 72
8
 73
4
 74
0
 40
0
 40
0
 40
0
 40
0
 40
1
 40
1
 40
1
 40
1
 10
26.766150
 20
205.309814
 30
0.0
 10
27.163051
 20
206.170900
 30
0.0
 10
27.706585
 20
206.909776
 30
0.0
 10
28.414954
 20
207.520434
 30
0.0
  0
SPLINE
  5
177
100
AcDbEntity
  8
0
 62
7
100
AcDbSpline
 70
8
 71
3
 72
8
 73
4
 74
0
 40
0
 40
0
 40
0
 40
0
 40
1
 40
1
 40
1
 40
1
 10
28.414954
 20
207.520434
 30
0.0
 10
29.117237
 20
208.137231
 30
0.0
 10
29.959961
 20
208.613560
 30
0.0
 10
30.955350
 20
208.961646
 30
0.0
  0
SPLINE
  5
178
100
AcDbEntity
  8
0
 62
7
100
AcDbSpline
 70
8
 71
3
 72
8
 73
4
 74
0
 40
0
 40
0
 40
0
 40
0
 40
1
 40
1
 40
1
 40
1
 10
30.955350
 20
208.961646
 30
0.0
 10
31.944680
 20
209.309705
 30
0.0
 10
33.037727
 20
209.480706
 30
0.0
 10
34.246873
 20
209.480706
 30
0.0
  0
SPLINE
  5
179
100
AcDbEntity
  8
0
 62
7
100
AcDbSpline
 70
8
 71
3
 72
8
 73
4
 74
0
 40
0
 40
0
 40
0
 40
0
 40
1
 40
1
 40
1
 40
1
 10
34.246873
 20
209.480706
 30
0.0
 10
35.449880
 20
209.480706
 30
0.0
 10
36.549065
 20
209.309705
 30
0.0
 10
37.544481
 20
208.961646
 30
0.0
  0
SPLINE
  5
17a
100
AcDbEntity
  8
0
 62
7
100
AcDbSpline
 70
8
 71
3
 72
8
 73
4
 74
0
 40
0
 40
0
 40
0
 40
0
 40
1
 40
1
 40
1
 40
1
 10
37.544481
 20
208.961646
 30
0.0
 10
38.539870
 20
208.613560
 30
0.0
 10
39.394871
 20
208.131172
 30
0.0
 10
40.103187
 20
207.514375
 30
0.0
  0
SPLINE
  5
17b
100
AcDbEntity
  8
0
 62
7
100
AcDbSpline
 70
8
 71
3
 72
8
 73
4
 74
0
 40
0
 40
0
 40
0
 40
0
 40
1
 40
1
 40
1
 40
1
 10
40.103187
 20
207.514375
 30
0.0
 10
40.811556
 20
206.891493
 30
0.0
 10
41.361228
 20
206.158650
 30
0.0
 10
41.751964
 20
205.303729
 30
0.0
  0
SPLINE
  5
17c
100
AcDbEntity
  8
0
 62
7
100
AcDbSpline
 70
8
 71
3
 72
8
 73
4
 74
0
 40
0
 40
0
 40
0
 40
0
 40
1
 40
1
 40
1
 40
1
 10
41.751964
 20
205.303729
 30
0.0
 10
41.902645
 20
204.968925
 30
0.0
 10
42.024300
 20
204.622876
 30
0.0
 10
42.116481
 20
204.264551
 30
0.0
  0
SPLINE
  5
17d
100
AcDbEntity
  8
0
 62
7
100
AcDbSpline
 70
8
 71
3
 72
8
 73
4
 74
0
 40
0
 40
0
 40
0
 40
0
 40
1
 40
1
 40
1
 40
1
 10
42.116481
 20
204.264551
 30
0.0
 10
45.745718
 20
206.500439
 30
0.0
 10
51.227990
 20
205.227079
 30
0.0
 10
54.010057
 20
204.719264
 30
0.0
  0
SPLINE
  5
17e
100
AcDbEntity
  8
0
 62
7
100
AcDbSpline
 70
8
 71
3
 72
8
 73
4
 74
0
 40
0
 40
0
 40
0
 40
0
 40
1
 40
1
 40
1
 40
1
 10
54.010057
 20
204.719264
 30
0.0
 10
47.016908
 20
211.681430
 30
0.0
 10
37.979403
 20
218.996710
 30
0.0
 10
28.178337
 20
224.381563
 30
0.0
  0
SPLINE
  5
17f
100
AcDbEntity
  8
0
 62
7
100
AcDbSpline
 70
8
 71
3
 72
8
 73
4
 74
0
 40
0
 40
0
 40
0
 40
0
 40
1
 40
1
 40
1
 40
1
 10
28.178337
 20
224.381563
 30
0.0
 10
26.274236
 20
222.549006
 30
0.0
 10
23.758948
 20
221.632674
 30
0.0
 10
20.632050
 20
221.632674
 30
0.0
  0
SPLINE
  5
180
100
AcDbEntity
  8
0
 62
7
100
AcDbSpline
 70
8
 71
3
 72
8
 73
4
 74
0
 40
0
 40
0
 40
0
 40
0
 40
1
 40
1
 40
1
 40
1
 10
20.632050
 20
221.632674
 30
0.0
 10
19.342788
 20
221.632674
 30
0.0
 10
18.137029
 20
221.837488
 30
0.0
 10
17.014640
 20
222.239417
 30
0.0
  0
SPLINE
  5
181
100
AcDbEntity
  8
0
 62
7
100
AcDbSpline
 70
8
 71
3
 72
8
 73
4
 74
0
 40
0
 40
0
 40
0
 40
0
 40
1
 40
1
 40
1
 40
1
 10
17.014640
 20
222.239417
 30
0.0
 10
15.884710
 20
222.648912
 30
0.0
 10
14.891173
 20
223.255575
 30
0.0
 10
14.026647
 20
224.067079
 30
0.0
  0
SPLINE
  5
182
100
AcDbEntity
  8
0
 62
7
100
AcDbSpline
 70
8
 71
3
 72
8
 73
4
 74
0
 40
0
 40
0
 40
0
 40
0
 40
1
 40
1
 40
1
 40
1
 10
14.026647
 20
224.067079
 30
0.0
 10
13.154554
 20
224.870936
 30
0.0
 10
12.434094
 20
225.879607
 30
0.0
 10
11.842565
 20
227.085393
 30
0.0
  0
SPLINE
  5
183
100
AcDbEntity
  8
0
 62
7
100
AcDbSpline
 70
8
 71
3
 72
8
 73
4
 74
0
 40
0
 40
0
 40
0
 40
0
 40
1
 40
1
 40
1
 40
1
 10
11.842565
 20
227.085393
 30
0.0
 10
11.258629
 20
228.291152
 30
0.0
 10
10.856701
 20
229.701751
 30
0.0
 10
10.636806
 20
231.317033
 30
0.0
  0
LWPOLYLINE
  5
184
100
AcDbEntity
  8
0
 62
7
100
AcDbPolyline
 90
5
 70
0
 10
69.429233
 20
178.522524
 30
0.0
 10
60.405142
 20
156.000529
 30
0.0
 10
55.055638
 20
156.000529
 30
0.0
 10
64.362304
 20
178.009074
 30
0.0
 10
53.367517
 20
178.009074
 30
0.0
  0
SPLINE
  5
185
100
AcDbEntity
  8
0
 62
7
100
AcDbSpline
 70
8
 71
3
 72
8
 73
4
 74
0
 40
0
 40
0
 40
0
 40
0
 40
1
 40
1
 40
1
 40
1
 10
16.855414
 20
231.317033
 30
0.0
 10
17.181460
 20
228.253290
 30
0.0
 10
18.523797
 20
226.721326
 30
0.0
 10
20.874752
 20
226.721326
 30
0.0
  0
SPLINE
  5
186
100
AcDbEntity
  8
0
 62
7
100
AcDbSpline
 70
8
 71
3
 72
8
 73
4
 74
0
 40
0
 40
0
 40
0
 40
0
 40
1
 40
1
 40
1
 40
1
 10
20.874752
 20
226.721326
 30
0.0
 10
22.285351
 20
226.721326
 30
0.0
 10
23.445602
 20
227.419059
 30
0.0
 10
24.355663
 20
228.814445
 30
0.0
  0
SPLINE
  5
187
100
AcDbEntity
  8
0
 62
7
100
AcDbSpline
 70
8
 71
3
 72
8
 73
4
 74
0
 40
0
 40
0
 40
0
 40
0
 40
1
 40
1
 40
1
 40
1
 10
24.355663
 20
228.814445
 30
0.0
 10
25.265698
 20
230.217398
 30
0.0
 10
25.902761
 20
232.265035
 30
0.0
 10
26.274289
 20
234.964817
 30
0.0
  0
SPLINE
  5
188
100
AcDbEntity
  8
0
 62
7
100
AcDbSpline
 70
8
 71
3
 72
8
 73
4
 74
0
 40
0
 40
0
 40
0
 40
0
 40
1
 40
1
 40
1
 40
1
 10
26.274289
 20
234.964817
 30
0.0
 10
24.560398
 20
233.705929
 30
0.0
 10
22.634178
 20
233.076459
 30
0.0
 10
20.503118
 20
233.076459
 30
0.0
  0
SPLINE
  5
189
100
AcDbEntity
  8
0
 62
7
100
AcDbSpline
 70
8
 71
3
 72
8
 73
4
 74
0
 40
0
 40
0
 40
0
 40
0
 40
1
 40
1
 40
1
 40
1
 10
20.503118
 20
233.076459
 30
0.0
 10
19.077384
 20
233.076459
 30
0.0
 10
17.742667
 20
233.349456
 30
0.0
 10
16.498940
 20
233.895530
 30
0.0
  0
SPLINE
  5
18a
100
AcDbEntity
  8
0
 62
7
100
AcDbSpline
 70
8
 71
3
 72
8
 73
4
 74
0
 40
0
 40
0
 40
0
 40
0
 40
1
 40
1
 40
1
 40
1
 10
16.498940
 20
233.895530
 30
0.0
 10
15.255214
 20
234.441550
 30
0.0
 10
14.170792
 20
235.207519
 30
0.0
 10
13.245518
 20
236.185816
 30
0.0
  0
SPLINE
  5
18b
100
AcDbEntity
  8
0
 62
7
100
AcDbSpline
 70
8
 71
3
 72
8
 73
4
 74
0
 40
0
 40
0
 40
0
 40
0
 40
1
 40
1
 40
1
 40
1
 10
13.245518
 20
236.185816
 30
0.0
 10
12.320323
 20
237.164033
 30
0.0
 10
11.592295
 20
238.316796
 30
0.0
 10
11.053868
 20
239.659134
 30
0.0
  0
SPLINE
  5
18c
100
AcDbEntity
  8
0
 62
7
100
AcDbSpline
 70
8
 71
3
 72
8
 73
4
 74
0
 40
0
 40
0
 40
0
 40
0
 40
1
 40
1
 40
1
 40
1
 10
11.053868
 20
239.659134
 30
0.0
 10
10.523035
 20
241.001418
 30
0.0
 10
10.257605
 20
242.472686
 30
0.0
 10
10.257605
 20
244.072807
 30
0.0
  0
SPLINE
  5
18d
100
AcDbEntity
  8
0
 62
7
100
AcDbSpline
 70
8
 71
3
 72
8
 73
4
 74
0
 40
0
 40
0
 40
0
 40
0
 40
1
 40
1
 40
1
 40
1
 10
10.257605
 20
244.072807
 30
0.0
 10
10.257605
 20
245.642633
 30
0.0
 10
10.515441
 20
247.129062
 30
0.0
 10
11.023574
 20
248.539582
 30
0.0
  0
SPLINE
  5
18e
100
AcDbEntity
  8
0
 62
7
100
AcDbSpline
 70
8
 71
3
 72
8
 73
4
 74
0
 40
0
 40
0
 40
0
 40
0
 40
1
 40
1
 40
1
 40
1
 10
11.023574
 20
248.539582
 30
0.0
 10
11.531626
 20
249.942615
 30
0.0
 10
12.259654
 20
251.171101
 30
0.0
 10
13.200063
 20
252.225307
 30
0.0
  0
SPLINE
  5
18f
100
AcDbEntity
  8
0
 62
7
100
AcDbSpline
 70
8
 71
3
 72
8
 73
4
 74
0
 40
0
 40
0
 40
0
 40
0
 40
1
 40
1
 40
1
 40
1
 10
13.200063
 20
252.225307
 30
0.0
 10
14.140418
 20
253.279354
 30
0.0
 10
15.270374
 20
254.106019
 30
0.0
 10
16.589931
 20
254.720328
 30
0.0
  0
SPLINE
  5
190
100
AcDbEntity
  8
0
 62
7
100
AcDbSpline
 70
8
 71
3
 72
8
 73
4
 74
0
 40
0
 40
0
 40
0
 40
0
 40
1
 40
1
 40
1
 40
1
 10
16.589931
 20
254.720328
 30
0.0
 10
17.909540
 20
255.342152
 30
0.0
 10
19.373162
 20
255.645550
 30
0.0
 10
20.988523
 20
255.645550
 30
0.0
  0
SPLINE
  5
191
100
AcDbEntity
  8
0
 62
7
100
AcDbSpline
 70
8
 71
3
 72
8
 73
4
 74
0
 40
0
 40
0
 40
0
 40
0
 40
1
 40
1
 40
1
 40
1
 10
20.988523
 20
255.645550
 30
0.0
 10
22.808539
 20
255.645550
 30
0.0
 10
24.446627
 20
255.296644
 30
0.0
 10
25.887521
 20
254.598990
 30
0.0
  0
SPLINE
  5
192
100
AcDbEntity
  8
0
 62
7
100
AcDbSpline
 70
8
 71
3
 72
8
 73
4
 74
0
 40
0
 40
0
 40
0
 40
0
 40
1
 40
1
 40
1
 40
1
 10
25.887521
 20
254.598990
 30
0.0
 10
27.328416
 20
253.908851
 30
0.0
 10
28.557008
 20
252.877426
 30
0.0
 10
29.550439
 20
251.527601
 30
0.0
  0
SPLINE
  5
193
100
AcDbEntity
  8
0
 62
7
100
AcDbSpline
 70
8
 71
3
 72
8
 73
4
 74
0
 40
0
 40
0
 40
0
 40
0
 40
1
 40
1
 40
1
 40
1
 10
29.550439
 20
251.527601
 30
0.0
 10
30.551543
 20
250.170077
 30
0.0
 10
31.317459
 20
248.494127
 30
0.0
 10
31.840726
 20
246.499592
 30
0.0
  0
SPLINE
  5
194
100
AcDbEntity
  8
0
 62
7
100
AcDbSpline
 70
8
 71
3
 72
8
 73
4
 74
0
 40
0
 40
0
 40
0
 40
0
 40
1
 40
1
 40
1
 40
1
 10
31.840726
 20
246.499592
 30
0.0
 10
32.363992
 20
244.512677
 30
0.0
 10
32.629422
 20
242.222417
 30
0.0
 10
32.629422
 20
239.628759
 30
0.0
  0
SPLINE
  5
195
100
AcDbEntity
  8
0
 62
7
100
AcDbSpline
 70
8
 71
3
 72
8
 73
4
 74
0
 40
0
 40
0
 40
0
 40
0
 40
1
 40
1
 40
1
 40
1
 10
32.629422
 20
239.628759
 30
0.0
 10
32.629422
 20
234.052375
 30
0.0
 10
31.765425
 20
229.772713
 30
0.0
 10
30.037802
 20
226.788239
 30
0.0
  0
SPLINE
  5
196
100
AcDbEntity
  8
0
 62
7
100
AcDbSpline
 70
8
 71
3
 72
8
 73
4
 74
0
 40
0
 40
0
 40
0
 40
0
 40
1
 40
1
 40
1
 40
1
 10
30.037802
 20
226.788239
 30
0.0
 10
35.093857
 20
224.571163
 30
0.0
 10
40.785150
 20
221.933929
 30
0.0
 10
47.347346
 20
217.873580
 30
0.0
  0
SPLINE
  5
197
100
AcDbEntity
  8
0
 62
7
100
AcDbSpline
 70
8
 71
3
 72
8
 73
4
 74
0
 40
0
 40
0
 40
0
 40
0
 40
1
 40
1
 40
1
 40
1
 10
47.347346
 20
217.873580
 30
0.0
 10
43.720279
 20
222.441611
 30
0.0
 10
43.268768
 20
229.335251
 30
0.0
 10
47.520754
 20
233.647139
 30
0.0
  0
SPLINE
  5
198
100
AcDbEntity
  8
0
 62
7
100
AcDbSpline
 70
8
 71
3
 72
8
 73
4
 74
0
 40
0
 40
0
 40
0
 40
0
 40
1
 40
1
 40
1
 40
1
 10
47.520754
 20
233.647139
 30
0.0
 10
53.218662
 20
227.906262
 30
0.0
 10
55.774960
 20
221.660402
 30
0.0
 10
50.898002
 20
215.589697
 30
0.0
  0
SPLINE
  5
199
100
AcDbEntity
  8
0
 62
7
100
AcDbSpline
 70
8
 71
3
 72
8
 73
4
 74
0
 40
0
 40
0
 40
0
 40
0
 40
1
 40
1
 40
1
 40
1
 10
50.898002
 20
215.589697
 30
0.0
 10
57.209478
 20
211.374090
 30
0.0
 10
64.289331
 20
205.811252
 30
0.0
 10
72.320917
 20
198.123625
 30
0.0
  0
SPLINE
  5
19a
100
AcDbEntity
  8
0
 62
7
100
AcDbSpline
 70
8
 71
3
 72
8
 73
4
 74
0
 40
0
 40
0
 40
0
 40
0
 40
1
 40
1
 40
1
 40
1
 10
72.320917
 20
198.123625
 30
0.0
 10
73.773453
 20
197.462722
 30
0.0
 10
74.290264
 20
197.967018
 30
0.0
 10
74.240628
 20
199.176614
 30
0.0
  0
SPLINE
  5
19b
100
AcDbEntity
  8
0
 62
7
100
AcDbSpline
 70
8
 71
3
 72
8
 73
4
 74
0
 40
0
 40
0
 40
0
 40
0
 40
1
 40
1
 40
1
 40
1
 10
74.240628
 20
199.176614
 30
0.0
 10
74.365115
 20
202.614689
 30
0.0
 10
74.467429
 20
206.069406
 30
0.0
 10
74.547598
 20
209.536215
 30
0.0
  0
SPLINE
  5
19c
100
AcDbEntity
  8
0
 62
7
100
AcDbSpline
 70
8
 71
3
 72
8
 73
4
 74
0
 40
0
 40
0
 40
0
 40
0
 40
1
 40
1
 40
1
 40
1
 10
74.547598
 20
209.536215
 30
0.0
 10
66.642139
 20
211.370413
 30
0.0
 10
63.996226
 20
223.269995
 30
0.0
 10
59.690767
 20
229.321651
 30
0.0
  0
LWPOLYLINE
  5
19d
100
AcDbEntity
  8
0
 62
7
100
AcDbPolyline
 90
2
 70
0
 10
10.636806
 20
231.317033
 30
0.0
 10
16.855414
 20
231.317033
 30
0.0
  0
SPLINE
  5
19e
100
AcDbEntity
  8
0
 62
7
100
AcDbSpline
 70
8
 71
3
 72
8
 73
4
 74
0
 40
0
 40
0
 40
0
 40
0
 40
1
 40
1
 40
1
 40
1
 10
59.183244
 20
225.650795
 30
0.0
 10
51.303608
 20
237.707726
 30
0.0
 10
50.213260
 20
244.968845
 30
0.0
 10
52.409778
 20
265.485536
 30
0.0
  0
SPLINE
  5
19f
100
AcDbEntity
  8
0
 62
7
100
AcDbSpline
 70
8
 71
3
 72
8
 73
4
 74
0
 40
0
 40
0
 40
0
 40
0
 40
1
 40
1
 40
1
 40
1
 10
52.409778
 20
265.485536
 30
0.0
 10
50.627095
 20
273.066536
 30
0.0
 10
57.802357
 20
277.544027
 30
0.0
 10
63.311855
 20
271.366747
 30
0.0
  0
LWPOLYLINE
  5
1a0
100
AcDbEntity
  8
0
 62
7
100
AcDbPolyline
 90
2
 70
0
 10
59.690767
 20
229.321651
 30
0.0
 10
59.183244
 20
225.650795
 30
0.0
  0
SPLINE
  5
1a1
100
AcDbEntity
  8
0
 62
7
100
AcDbSpline
 70
8
 71
3
 72
8
 73
4
 74
0
 40
0
 40
0
 40
0
 40
0
 40
1
 40
1
 40
1
 40
1
 10
64.397017
 20
267.231839
 30
0.0
 10
65.074112
 20
265.658865
 30
0.0
 10
65.351634
 20
264.085970
 30
0.0
 10
65.310306
 20
262.513075
 30
0.0
  0
SPLINE
  5
1a2
100
AcDbEntity
  8
0
 62
7
100
AcDbSpline
 70
8
 71
3
 72
8
 73
4
 74
0
 40
0
 40
0
 40
0
 40
0
 40
1
 40
1
 40
1
 40
1
 10
65.310306
 20
262.513075
 30
0.0
 10
69.479927
 20
260.975925
 30
0.0
 10
69.878469
 20
255.805966
 30
0.0
 10
70.016317
 20
247.298501
 30
0.0
  0
LWPOLYLINE
  5
1a3
100
AcDbEntity
  8
0
 62
7
100
AcDbPolyline
 90
3
 70
0
 10
63.311855
 20
271.366747
 30
0.0
 10
69.064584
 20
271.458849
 30
0.0
 10
64.397017
 20
267.231839
 30
0.0
  0
SPLINE
  5
1a4
100
AcDbEntity
  8
0
 62
7
100
AcDbSpline
 70
8
 71
3
 72
8
 73
4
 74
0
 40
0
 40
0
 40
0
 40
0
 40
1
 40
1
 40
1
 40
1
 10
74.522542
 20
248.126938
 30
0.0
 10
74.273860
 20
258.310142
 30
0.0
 10
73.832561
 20
268.460776
 30
0.0
 10
73.194757
 20
278.471498
 30
0.0
  0
SPLINE
  5
1a5
100
AcDbEntity
  8
0
 62
7
100
AcDbSpline
 70
8
 71
3
 72
8
 73
4
 74
0
 40
0
 40
0
 40
0
 40
0
 40
1
 40
1
 40
1
 40
1
 10
73.194757
 20
278.471498
 30
0.0
 10
72.873976
 20
283.362003
 30
0.0
 10
66.738817
 20
287.267200
 30
0.0
 10
57.775422
 20
290.693025
 30
0.0
  0
SPLINE
  5
1a6
100
AcDbEntity
  8
0
 62
7
100
AcDbSpline
 70
8
 71
3
 72
8
 73
4
 74
0
 40
0
 40
0
 40
0
 40
0
 40
1
 40
1
 40
1
 40
1
 10
57.775422
 20
290.693025
 30
0.0
 10
55.912359
 20
291.621025
 30
0.0
 10
51.334273
 20
290.377880
 30
0.0
 10
45.437769
 20
288.037217
 30
0.0
  0
SPLINE
  5
1a7
100
AcDbEntity
  8
0
 62
7
100
AcDbSpline
 70
8
 71
3
 72
8
 73
4
 74
0
 40
0
 40
0
 40
0
 40
0
 40
1
 40
1
 40
1
 40
1
 10
45.437769
 20
288.037217
 30
0.0
 10
47.438707
 20
285.806197
 30
0.0
 10
48.439202
 20
282.045992
 30
0.0
 10
48.439202
 20
276.756389
 30
0.0
  0
SPLINE
  5
1a8
100
AcDbEntity
  8
0
 62
7
100
AcDbSpline
 70
8
 71
3
 72
8
 73
4
 74
0
 40
0
 40
0
 40
0
 40
0
 40
1
 40
1
 40
1
 40
1
 10
48.439202
 20
276.756389
 30
0.0
 10
48.439202
 20
267.645171
 30
0.0
 10
45.446924
 20
263.089575
 30
0.0
 10
39.462313
 20
263.089575
 30
0.0
  0
SPLINE
  5
1a9
100
AcDbEntity
  8
0
 62
7
100
AcDbSpline
 70
8
 71
3
 72
8
 73
4
 74
0
 40
0
 40
0
 40
0
 40
0
 40
1
 40
1
 40
1
 40
1
 10
39.462313
 20
263.089575
 30
0.0
 10
33.496038
 20
263.089575
 30
0.0
 10
30.516010
 20
267.645171
 30
0.0
 10
30.516010
 20
276.756389
 30
0.0
  0
SPLINE
  5
1aa
100
AcDbEntity
  8
0
 62
7
100
AcDbSpline
 70
8
 71
3
 72
8
 73
4
 74
0
 40
0
 40
0
 40
0
 40
0
 40
1
 40
1
 40
1
 40
1
 10
30.516010
 20
276.756389
 30
0.0
 10
30.516010
 20
278.512879
 30
0.0
 10
30.626262
 20
280.100114
 30
0.0
 10
30.846077
 20
281.519339
 30
0.0
  0
SPLINE
  5
1ab
100
AcDbEntity
  8
0
 62
7
100
AcDbSpline
 70
8
 71
3
 72
8
 73
4
 74
0
 40
0
 40
0
 40
0
 40
0
 40
1
 40
1
 40
1
 40
1
 10
30.846077
 20
281.519339
 30
0.0
 10
28.129124
 20
280.224309
 30
0.0
 10
25.369044
 20
278.883851
 30
0.0
 10
22.644444
 20
277.558130
 30
0.0
  0
LWPOLYLINE
  5
1ac
100
AcDbEntity
  8
0
 62
7
100
AcDbPolyline
 90
3
 70
0
 10
70.016317
 20
247.298501
 30
0.0
 10
72.630215
 20
248.772839
 30
0.0
 10
74.522542
 20
248.126938
 30
0.0
  0
SPLINE
  5
1ad
100
AcDbEntity
  8
0
 62
7
100
AcDbSpline
 70
8
 71
3
 72
8
 73
4
 74
0
 40
0
 40
0
 40
0
 40
0
 40
1
 40
1
 40
1
 40
1
 10
17.777407
 20
275.192490
 30
0.0
 10
16.630491
 20
274.636653
 30
0.0
 10
15.498815
 20
274.090368
 30
0.0
 10
14.389206
 20
273.558688
 30
0.0
  0
SPLINE
  5
1ae
100
AcDbEntity
  8
0
 62
7
100
AcDbSpline
 70
8
 71
3
 72
8
 73
4
 74
0
 40
0
 40
0
 40
0
 40
0
 40
1
 40
1
 40
1
 40
1
 10
14.389206
 20
273.558688
 30
0.0
 10
16.040338
 20
270.102991
 30
0.0
 10
13.850938
 20
265.753215
 30
0.0
 10
10.185162
 20
264.503800
 30
0.0
  0
SPLINE
  5
1af
100
AcDbEntity
  8
0
 62
7
100
AcDbSpline
 70
8
 71
3
 72
8
 73
4
 74
0
 40
0
 40
0
 40
0
 40
0
 40
1
 40
1
 40
1
 40
1
 10
10.185162
 20
264.503800
 30
0.0
 10
9.402075
 20
265.985572
 30
0.0
 10
9.202288
 20
267.344710
 30
0.0
 10
9.455626
 20
268.591215
 30
0.0
  0
SPLINE
  5
1b0
100
AcDbEntity
  8
0
 62
7
100
AcDbSpline
 70
8
 71
3
 72
8
 73
4
 74
0
 40
0
 40
0
 40
0
 40
0
 40
1
 40
1
 40
1
 40
1
 10
9.455626
 20
268.591215
 30
0.0
 10
7.925700
 20
268.088851
 30
0.0
 10
6.207231
 20
268.082421
 30
0.0
 10
4.652248
 20
268.694270
 30
0.0
  0
SPLINE
  5
1b1
100
AcDbEntity
  8
0
 62
7
100
AcDbSpline
 70
8
 71
3
 72
8
 73
4
 74
0
 40
0
 40
0
 40
0
 40
0
 40
1
 40
1
 40
1
 40
1
 10
4.652248
 20
268.694270
 30
0.0
 10
4.839309
 20
269.542128
 30
0.0
 10
5.124741
 20
270.263408
 30
0.0
 10
5.495105
 20
270.871368
 30
0.0
  0
SPLINE
  5
1b2
100
AcDbEntity
  8
0
 62
7
100
AcDbSpline
 70
8
 71
3
 72
8
 73
4
 74
0
 40
0
 40
0
 40
0
 40
0
 40
1
 40
1
 40
1
 40
1
 10
5.495105
 20
270.871368
 30
0.0
 10
3.024902
 20
271.443688
 30
0.0
 10
0.900668
 20
273.276907
 30
0.0
 10
0.482626
 20
275.901679
 30
0.0
  0
SPLINE
  5
1b3
100
AcDbEntity
  8
0
 62
7
100
AcDbSpline
 70
8
 71
3
 72
8
 73
4
 74
0
 40
0
 40
0
 40
0
 40
0
 40
1
 40
1
 40
1
 40
1
 10
0.482626
 20
275.901679
 30
0.0
 10
2.627180
 20
276.219682
 30
0.0
 10
4.581287
 20
276.167480
 30
0.0
 10
6.148361
 20
275.551053
 30
0.0
  0
SPLINE
  5
1b4
100
AcDbEntity
  8
0
 62
7
100
AcDbSpline
 70
8
 71
3
 72
8
 73
4
 74
0
 40
0
 40
0
 40
0
 40
0
 40
1
 40
1
 40
1
 40
1
 10
6.148361
 20
275.551053
 30
0.0
 10
5.710873
 20
276.212856
 30
0.0
 10
5.402845
 20
276.970437
 30
0.0
 10
5.269283
 20
277.809008
 30
0.0
  0
SPLINE
  5
1b5
100
AcDbEntity
  8
0
 62
7
100
AcDbSpline
 70
8
 71
3
 72
8
 73
4
 74
0
 40
0
 40
0
 40
0
 40
0
 40
1
 40
1
 40
1
 40
1
 10
5.269283
 20
277.809008
 30
0.0
 10
8.139139
 20
278.234563
 30
0.0
 10
10.668238
 20
277.997417
 30
0.0
 10
12.384458
 20
276.631665
 30
0.0
  0
LWPOLYLINE
  5
1b6
100
AcDbEntity
  8
0
 62
7
100
AcDbPolyline
 90
4
 70
0
 10
22.644444
 20
277.558130
 30
0.0
 10
22.644444
 20
263.517010
 30
0.0
 10
17.777407
 20
263.517010
 30
0.0
 10
17.777407
 20
275.192490
 30
0.0
  0
SPLINE
  5
1b7
100
AcDbEntity
  8
0
 62
7
100
AcDbSpline
 70
8
 71
3
 72
8
 73
4
 74
0
 40
0
 40
0
 40
0
 40
0
 40
1
 40
1
 40
1
 40
1
 10
17.777407
 20
282.643289
 30
0.0
 10
16.336195
 20
282.118065
 30
0.0
 10
14.339332
 20
281.855492
 30
0.0
 10
11.786711
 20
281.855492
 30
0.0
  0
LWPOLYLINE
  5
1b8
100
AcDbEntity
  8
0
 62
7
100
AcDbPolyline
 90
3
 70
0
 10
12.384458
 20
276.631665
 30
0.0
 10
17.777407
 20
279.109223
 30
0.0
 10
17.777407
 20
282.643289
 30
0.0
  0
SPLINE
  5
1b9
100
AcDbEntity
  8
0
 62
7
100
AcDbSpline
 70
8
 71
3
 72
8
 73
4
 74
0
 40
0
 40
0
 40
0
 40
0
 40
1
 40
1
 40
1
 40
1
 10
11.786711
 20
285.953121
 30
0.0
 10
15.792688
 20
285.953121
 30
0.0
 10
18.082736
 20
287.461431
 30
0.0
 10
18.656776
 20
290.478157
 30
0.0
  0
LWPOLYLINE
  5
1ba
100
AcDbEntity
  8
0
 62
7
100
AcDbPolyline
 90
2
 70
0
 10
11.786711
 20
281.855492
 30
0.0
 10
11.786711
 20
285.953121
 30
0.0
  0
SPLINE
  5
1bb
100
AcDbEntity
  8
0
 62
7
100
AcDbSpline
 70
8
 71
3
 72
8
 73
4
 74
0
 40
0
 40
0
 40
0
 40
0
 40
1
 40
1
 40
1
 40
1
 10
26.790756
 20
283.250031
 30
0.0
 10
24.854165
 20
285.077403
 30
0.0
 10
24.159157
 20
288.127149
 30
0.0
 10
25.732872
 20
290.403624
 30
0.0
  0
SPLINE
  5
1bc
100
AcDbEntity
  8
0
 62
7
100
AcDbSpline
 70
8
 71
3
 72
8
 73
4
 74
0
 40
0
 40
0
 40
0
 40
0
 40
1
 40
1
 40
1
 40
1
 10
25.732872
 20
290.403624
 30
0.0
 10
28.115101
 20
288.718651
 30
0.0
 10
29.660612
 20
286.744278
 30
0.0
 10
29.435690
 20
284.465051
 30
0.0
  0
LWPOLYLINE
  5
1bd
100
AcDbEntity
  8
0
 62
7
100
AcDbPolyline
 90
4
 70
0
 10
18.656776
 20
290.478157
 30
0.0
 10
22.644444
 20
290.478157
 30
0.0
 10
22.644444
 20
281.345190
 30
0.0
 10
26.790756
 20
283.250031
 30
0.0
  0
SPLINE
  5
1be
100
AcDbEntity
  8
0
 62
7
100
AcDbSpline
 70
8
 71
3
 72
8
 73
4
 74
0
 40
0
 40
0
 40
0
 40
0
 40
1
 40
1
 40
1
 40
1
 10
31.991088
 20
285.639007
 30
0.0
 10
33.429152
 20
288.865284
 30
0.0
 10
35.919225
 20
290.478157
 30
0.0
 10
39.462313
 20
290.478157
 30
0.0
  0
SPLINE
  5
1bf
100
AcDbEntity
  8
0
 62
7
100
AcDbSpline
 70
8
 71
3
 72
8
 73
4
 74
0
 40
0
 40
0
 40
0
 40
0
 40
1
 40
1
 40
1
 40
1
 10
39.462313
 20
290.478157
 30
0.0
 10
40.334697
 20
290.478157
 30
0.0
 10
41.143052
 20
290.380288
 30
0.0
 10
41.888331
 20
290.185898
 30
0.0
  0
LWPOLYLINE
  5
1c0
100
AcDbEntity
  8
0
 62
7
100
AcDbPolyline
 90
2
 70
0
 10
29.435690
 20
284.465051
 30
0.0
 10
31.991088
 20
285.639007
 30
0.0
  0
SPLINE
  5
1c1
100
AcDbEntity
  8
0
 62
7
100
AcDbSpline
 70
8
 71
3
 72
8
 73
4
 74
0
 40
0
 40
0
 40
0
 40
0
 40
1
 40
1
 40
1
 40
1
 10
48.924236
 20
293.418154
 30
0.0
 10
50.019294
 20
293.989204
 30
0.0
 10
50.172673
 20
294.854498
 30
0.0
 10
48.924236
 20
296.157756
 30
0.0
  0
SPLINE
  5
1c2
100
AcDbEntity
  8
0
 62
7
100
AcDbSpline
 70
8
 71
3
 72
8
 73
4
 74
0
 40
0
 40
0
 40
0
 40
0
 40
1
 40
1
 40
1
 40
1
 10
48.924236
 20
296.157756
 30
0.0
 10
46.581748
 20
297.799575
 30
0.0
 10
43.136317
 20
299.178848
 30
0.0
 10
38.684544
 20
300.318540
 30
0.0
  0
SPLINE
  5
1c3
100
AcDbEntity
  8
0
 62
7
100
AcDbSpline
 70
8
 71
3
 72
8
 73
4
 74
0
 40
0
 40
0
 40
0
 40
0
 40
1
 40
1
 40
1
 40
1
 10
38.684544
 20
300.318540
 30
0.0
 10
33.831451
 20
297.497050
 30
0.0
 10
26.937891
 20
298.928102
 30
0.0
 10
24.568362
 20
304.173758
 30
0.0
  0
SPLINE
  5
1c4
100
AcDbEntity
  8
0
 62
7
100
AcDbSpline
 70
8
 71
3
 72
8
 73
4
 74
0
 40
0
 40
0
 40
0
 40
0
 40
1
 40
1
 40
1
 40
1
 10
24.568362
 20
304.173758
 30
0.0
 10
27.239410
 20
305.345941
 30
0.0
 10
29.805762
 20
306.023486
 30
0.0
 10
32.115151
 20
305.944376
 30
0.0
  0
SPLINE
  5
1c5
100
AcDbEntity
  8
0
 62
7
100
AcDbSpline
 70
8
 71
3
 72
8
 73
4
 74
0
 40
0
 40
0
 40
0
 40
0
 40
1
 40
1
 40
1
 40
1
 10
32.115151
 20
305.944376
 30
0.0
 10
30.903889
 20
307.615511
 30
0.0
 10
30.331807
 20
309.703205
 30
0.0
 10
30.813666
 20
311.849188
 30
0.0
  0
SPLINE
  5
1c6
100
AcDbEntity
  8
0
 62
7
100
AcDbSpline
 70
8
 71
3
 72
8
 73
4
 74
0
 40
0
 40
0
 40
0
 40
0
 40
1
 40
1
 40
1
 40
1
 10
30.813666
 20
311.849188
 30
0.0
 10
35.704727
 20
310.695525
 30
0.0
 10
39.214663
 20
308.338141
 30
0.0
 10
39.208869
 20
303.873694
 30
0.0
  0
SPLINE
  5
1c7
100
AcDbEntity
  8
0
 62
7
100
AcDbSpline
 70
8
 71
3
 72
8
 73
4
 74
0
 40
0
 40
0
 40
0
 40
0
 40
1
 40
1
 40
1
 40
1
 10
39.208869
 20
303.873694
 30
0.0
 10
41.418007
 20
303.250362
 30
0.0
 10
44.983956
 20
302.029601
 30
0.0
 10
48.924236
 20
300.574657
 30
0.0
  0
LWPOLYLINE
  5
1c8
100
AcDbEntity
  8
0
 62
7
100
AcDbPolyline
 90
2
 70
0
 10
41.888331
 20
290.185898
 30
0.0
 10
48.924236
 20
293.418154
 30
0.0
  0
SPLINE
  5
1c9
100
AcDbEntity
  8
0
 62
7
100
AcDbSpline
 70
8
 71
3
 72
8
 73
4
 74
0
 40
0
 40
0
 40
0
 40
0
 40
1
 40
1
 40
1
 40
1
 10
48.924236
 20
310.754792
 30
0.0
 10
47.483104
 20
310.229647
 30
0.0
 10
45.486161
 20
309.967074
 30
0.0
 10
42.933514
 20
309.967074
 30
0.0
  0
LWPOLYLINE
  5
1ca
100
AcDbEntity
  8
0
 62
7
100
AcDbPolyline
 90
2
 70
0
 10
48.924236
 20
300.574657
 30
0.0
 10
48.924236
 20
310.754792
 30
0.0
  0
SPLINE
  5
1cb
100
AcDbEntity
  8
0
 62
7
100
AcDbSpline
 70
8
 71
3
 72
8
 73
4
 74
0
 40
0
 40
0
 40
0
 40
0
 40
1
 40
1
 40
1
 40
1
 10
42.933514
 20
314.064676
 30
0.0
 10
46.939570
 20
314.064676
 30
0.0
 10
49.229539
 20
315.573013
 30
0.0
 10
49.803606
 20
318.589739
 30
0.0
  0
LWPOLYLINE
  5
1cc
100
AcDbEntity
  8
0
 62
7
100
AcDbPolyline
 90
2
 70
0
 10
42.933514
 20
309.967074
 30
0.0
 10
42.933514
 20
314.064676
 30
0.0
  0
SPLINE
  5
1cd
100
AcDbEntity
  8
0
 62
7
100
AcDbSpline
 70
8
 71
3
 72
8
 73
4
 74
0
 40
0
 40
0
 40
0
 40
0
 40
1
 40
1
 40
1
 40
1
 10
53.791273
 20
298.731226
 30
0.0
 10
56.763073
 20
297.578039
 30
0.0
 10
59.724237
 20
296.378101
 30
0.0
 10
62.295670
 20
295.271719
 30
0.0
  0
LWPOLYLINE
  5
1ce
100
AcDbEntity
  8
0
 62
7
100
AcDbPolyline
 90
3
 70
0
 10
49.803606
 20
318.589739
 30
0.0
 10
53.791273
 20
318.589739
 30
0.0
 10
53.791273
 20
298.731226
 30
0.0
  0
SPLINE
  5
1cf
100
AcDbEntity
  8
0
 62
7
100
AcDbSpline
 70
8
 71
3
 72
8
 73
4
 74
0
 40
0
 40
0
 40
0
 40
0
 40
1
 40
1
 40
1
 40
1
 10
62.295670
 20
310.754792
 30
0.0
 10
60.854484
 20
310.229647
 30
0.0
 10
58.857594
 20
309.967074
 30
0.0
 10
56.304974
 20
309.967074
 30
0.0
  0
LWPOLYLINE
  5
1d0
100
AcDbEntity
  8
0
 62
7
100
AcDbPolyline
 90
2
 70
0
 10
62.295670
 20
295.271719
 30
0.0
 10
62.295670
 20
310.754792
 30
0.0
  0
SPLINE
  5
1d1
100
AcDbEntity
  8
0
 62
7
100
AcDbSpline
 70
8
 71
3
 72
8
 73
4
 74
0
 40
0
 40
0
 40
0
 40
0
 40
1
 40
1
 40
1
 40
1
 10
56.304974
 20
314.064676
 30
0.0
 10
60.311030
 20
314.064676
 30
0.0
 10
62.600999
 20
315.573013
 30
0.0
 10
63.175039
 20
318.589739
 30
0.0
  0
LWPOLYLINE
  5
1d2
100
AcDbEntity
  8
0
 62
7
100
AcDbPolyline
 90
2
 70
0
 10
56.304974
 20
309.967074
 30
0.0
 10
56.304974
 20
314.064676
 30
0.0
  0
SPLINE
  5
1d3
100
AcDbEntity
  8
0
 62
7
100
AcDbSpline
 70
8
 71
3
 72
8
 73
4
 74
0
 40
0
 40
0
 40
0
 40
0
 40
1
 40
1
 40
1
 40
1
 10
67.162733
 20
293.049695
 30
0.0
 10
68.159551
 20
292.553946
 30
0.0
 10
68.953274
 20
292.117965
 30
0.0
 10
69.476038
 20
291.766519
 30
0.0
  0
SPLINE
  5
1d4
100
AcDbEntity
  8
0
 62
7
100
AcDbSpline
 70
8
 71
3
 72
8
 73
4
 74
0
 40
0
 40
0
 40
0
 40
0
 40
1
 40
1
 40
1
 40
1
 10
69.476038
 20
291.766519
 30
0.0
 10
71.124445
 20
290.984411
 30
0.0
 10
72.026912
 20
291.445368
 30
0.0
 10
72.091497
 20
293.303193
 30
0.0
  0
LWPOLYLINE
  5
1d5
100
AcDbEntity
  8
0
 62
7
100
AcDbPolyline
 90
3
 70
0
 10
63.175039
 20
318.589739
 30
0.0
 10
67.162733
 20
318.589739
 30
0.0
 10
67.162733
 20
293.049695
 30
0.0
  0
SPLINE
  5
1d6
100
AcDbEntity
  8
0
 62
7
100
AcDbSpline
 70
8
 71
3
 72
8
 73
4
 74
0
 40
0
 40
0
 40
0
 40
0
 40
1
 40
1
 40
1
 40
1
 10
100.157624
 20
240.267834
 30
0.0
 10
101.814524
 20
240.267834
 30
0.0
 10
103.157629
 20
238.924650
 30
0.0
 10
103.157629
 20
237.267829
 30
0.0
  0
SPLINE
  5
1d7
100
AcDbEntity
  8
0
 62
7
100
AcDbSpline
 70
8
 71
3
 72
8
 73
4
 74
0
 40
0
 40
0
 40
0
 40
0
 40
1
 40
1
 40
1
 40
1
 10
103.157629
 20
237.267829
 30
0.0
 10
103.157629
 20
235.611009
 30
0.0
 10
101.814524
 20
234.267825
 30
0.0
 10
100.157624
 20
234.267825
 30
0.0
  0
SPLINE
  5
1d8
100
AcDbEntity
  8
0
 62
7
100
AcDbSpline
 70
8
 71
3
 72
8
 73
4
 74
0
 40
0
 40
0
 40
0
 40
0
 40
1
 40
1
 40
1
 40
1
 10
100.157624
 20
234.267825
 30
0.0
 10
98.500724
 20
234.267825
 30
0.0
 10
97.157619
 20
235.611009
 30
0.0
 10
97.157619
 20
237.267829
 30
0.0
  0
SPLINE
  5
1d9
100
AcDbEntity
  8
0
 62
7
100
AcDbSpline
 70
8
 71
3
 72
8
 73
4
 74
0
 40
0
 40
0
 40
0
 40
0
 40
1
 40
1
 40
1
 40
1
 10
97.157619
 20
237.267829
 30
0.0
 10
97.157619
 20
238.924650
 30
0.0
 10
98.500724
 20
240.267834
 30
0.0
 10
100.157624
 20
240.267834
 30
0.0
  0
LWPOLYLINE
  5
1da
100
AcDbEntity
  8
0
 62
7
100
AcDbPolyline
 90
2
 70
0
 10
72.091497
 20
293.303193
 30
0.0
 10
69.538427
 20
334.325648
 30
0.0
  0
SPLINE
  5
1db
100
AcDbEntity
  8
0
 62
7
100
AcDbSpline
 70
8
 71
3
 72
8
 73
4
 74
0
 40
0
 40
0
 40
0
 40
0
 40
1
 40
1
 40
1
 40
1
 10
57.384685
 20
271.594739
 30
0.0
 10
58.006059
 20
271.594739
 30
0.0
 10
58.509667
 20
271.091025
 30
0.0
 10
58.509667
 20
270.469730
 30
0.0
  0
SPLINE
  5
1dc
100
AcDbEntity
  8
0
 62
7
100
AcDbSpline
 70
8
 71
3
 72
8
 73
4
 74
0
 40
0
 40
0
 40
0
 40
0
 40
1
 40
1
 40
1
 40
1
 10
58.509667
 20
270.469730
 30
0.0
 10
58.509667
 20
269.848436
 30
0.0
 10
58.006059
 20
269.344749
 30
0.0
 10
57.384685
 20
269.344749
 30
0.0
  0
SPLINE
  5
1dd
100
AcDbEntity
  8
0
 62
7
100
AcDbSpline
 70
8
 71
3
 72
8
 73
4
 74
0
 40
0
 40
0
 40
0
 40
0
 40
1
 40
1
 40
1
 40
1
 10
57.384685
 20
269.344749
 30
0.0
 10
56.763364
 20
269.344749
 30
0.0
 10
56.259677
 20
269.848436
 30
0.0
 10
56.259677
 20
270.469730
 30
0.0
  0
SPLINE
  5
1de
100
AcDbEntity
  8
0
 62
7
100
AcDbSpline
 70
8
 71
3
 72
8
 73
4
 74
0
 40
0
 40
0
 40
0
 40
0
 40
1
 40
1
 40
1
 40
1
 10
56.259677
 20
270.469730
 30
0.0
 10
56.259677
 20
271.091025
 30
0.0
 10
56.763364
 20
271.594739
 30
0.0
 10
57.384685
 20
271.594739
 30
0.0
  0
LWPOLYLINE
  5
1df
100
AcDbEntity
  8
0
 62
7
100
AcDbPolyline
 90
1
 70
1
 10
100.157624
 20
240.267834
 30
0.0
  0
SPLINE
  5
1e0
100
AcDbEntity
  8
0
 62
7
100
AcDbSpline
 70
8
 71
3
 72
8
 73
4
 74
0
 40
0
 40
0
 40
0
 40
0
 40
1
 40
1
 40
1
 40
1
 10
74.622237
 20
213.099385
 30
0.0
 10
74.812340
 20
223.262481
 30
0.0
 10
74.812128
 20
233.516779
 30
0.0
 10
74.617659
 20
243.753693
 30
0.0
  0
LWPOLYLINE
  5
1e1
100
AcDbEntity
  8
0
 62
7
100
AcDbPolyline
 90
1
 70
1
 10
57.384685
 20
271.594739
 30
0.0
  0
SPLINE
  5
1e2
100
AcDbEntity
  8
0
 62
7
100
AcDbSpline
 70
8
 71
3
 72
8
 73
4
 74
0
 40
0
 40
0
 40
0
 40
0
 40
1
 40
1
 40
1
 40
1
 10
70.801495
 20
243.892970
 30
0.0
 10
64.989234
 20
240.590044
 30
0.0
 10
62.586685
 20
235.737321
 30
0.0
 10
63.096749
 20
229.560543
 30
0.0
  0
SPLINE
  5
1e3
100
AcDbEntity
  8
0
 62
7
100
AcDbSpline
 70
8
 71
3
 72
8
 73
4
 74
0
 40
0
 40
0
 40
0
 40
0
 40
1
 40
1
 40
1
 40
1
 10
63.096749
 20
229.560543
 30
0.0
 10
63.530850
 20
226.587923
 30
0.0
 10
69.245480
 20
221.459928
 30
0.0
 10
71.026655
 20
216.601357
 30
0.0
  0
LWPOLYLINE
  5
1e4
100
AcDbEntity
  8
0
 62
7
100
AcDbPolyline
 90
2
 70
0
 10
74.617659
 20
243.753693
 30
0.0
 10
70.801495
 20
243.892970
 30
0.0
  0
LWPOLYLINE
  5
1e5
100
AcDbEntity
  8
0
 62
7
100
AcDbPolyline
 90
2
 70
0
 10
71.026655
 20
216.601357
 30
0.0
 10
74.622237
 20
213.099385
 30
0.0
  0
SPLINE
  5
1e6
100
AcDbEntity
  8
0
 62
7
100
AcDbSpline
 70
8
 71
3
 72
8
 73
4
 74
0
 40
0
 40
0
 40
0
 40
0
 40
1
 40
1
 40
1
 40
1
 10
21.185690
 20
238.157570
 30
0.0
 10
22.998139
 20
238.157570
 30
0.0
 10
24.787939
 20
239.075198
 30
0.0
 10
26.562447
 20
240.895293
 30
0.0
  0
SPLINE
  5
1e7
100
AcDbEntity
  8
0
 62
7
100
AcDbSpline
 70
8
 71
3
 72
8
 73
4
 74
0
 40
0
 40
0
 40
0
 40
0
 40
1
 40
1
 40
1
 40
1
 10
26.562447
 20
240.895293
 30
0.0
 10
26.516991
 20
242.449879
 30
0.0
 10
26.357765
 20
243.830184
 30
0.0
 10
26.084689
 20
245.035970
 30
0.0
  0
SPLINE
  5
1e8
100
AcDbEntity
  8
0
 62
7
100
AcDbSpline
 70
8
 71
3
 72
8
 73
4
 74
0
 40
0
 40
0
 40
0
 40
0
 40
1
 40
1
 40
1
 40
1
 10
26.084689
 20
245.035970
 30
0.0
 10
25.811692
 20
246.241729
 30
0.0
 10
25.432491
 20
247.257993
 30
0.0
 10
24.954759
 20
248.069418
 30
0.0
  0
SPLINE
  5
1e9
100
AcDbEntity
  8
0
 62
7
100
AcDbSpline
 70
8
 71
3
 72
8
 73
4
 74
0
 40
0
 40
0
 40
0
 40
0
 40
1
 40
1
 40
1
 40
1
 10
24.954759
 20
248.069418
 30
0.0
 10
24.469434
 20
248.880921
 30
0.0
 10
23.908200
 20
249.502745
 30
0.0
 10
23.256002
 20
249.927401
 30
0.0
  0
SPLINE
  5
1ea
100
AcDbEntity
  8
0
 62
7
100
AcDbSpline
 70
8
 71
3
 72
8
 73
4
 74
0
 40
0
 40
0
 40
0
 40
0
 40
1
 40
1
 40
1
 40
1
 10
23.256002
 20
249.927401
 30
0.0
 10
22.603804
 20
250.344543
 30
0.0
 10
21.875776
 20
250.556871
 30
0.0
 10
21.079513
 20
250.556871
 30
0.0
  0
SPLINE
  5
1eb
100
AcDbEntity
  8
0
 62
7
100
AcDbSpline
 70
8
 71
3
 72
8
 73
4
 74
0
 40
0
 40
0
 40
0
 40
0
 40
1
 40
1
 40
1
 40
1
 10
21.079513
 20
250.556871
 30
0.0
 10
20.381780
 20
250.556871
 30
0.0
 10
19.744716
 20
250.397645
 30
0.0
 10
19.175995
 20
250.079113
 30
0.0
  0
SPLINE
  5
1ec
100
AcDbEntity
  8
0
 62
7
100
AcDbSpline
 70
8
 71
3
 72
8
 73
4
 74
0
 40
0
 40
0
 40
0
 40
0
 40
1
 40
1
 40
1
 40
1
 10
19.175995
 20
250.079113
 30
0.0
 10
18.607193
 20
249.760581
 30
0.0
 10
18.121868
 20
249.328279
 30
0.0
 10
17.712372
 20
248.767150
 30
0.0
  0
SPLINE
  5
1ed
100
AcDbEntity
  8
0
 62
7
100
AcDbSpline
 70
8
 71
3
 72
8
 73
4
 74
0
 40
0
 40
0
 40
0
 40
0
 40
1
 40
1
 40
1
 40
1
 10
17.712372
 20
248.767150
 30
0.0
 10
17.302797
 20
248.213483
 30
0.0
 10
16.991912
 20
247.553718
 30
0.0
 10
16.764370
 20
246.795396
 30
0.0
  0
SPLINE
  5
1ee
100
AcDbEntity
  8
0
 62
7
100
AcDbSpline
 70
8
 71
3
 72
8
 73
4
 74
0
 40
0
 40
0
 40
0
 40
0
 40
1
 40
1
 40
1
 40
1
 10
16.764370
 20
246.795396
 30
0.0
 10
16.544475
 20
246.029401
 30
0.0
 10
16.430704
 20
245.202763
 30
0.0
 10
16.430704
 20
244.315509
 30
0.0
  0
SPLINE
  5
1ef
100
AcDbEntity
  8
0
 62
7
100
AcDbSpline
 70
8
 71
3
 72
8
 73
4
 74
0
 40
0
 40
0
 40
0
 40
0
 40
1
 40
1
 40
1
 40
1
 10
16.430704
 20
244.315509
 30
0.0
 10
16.430704
 20
243.428176
 30
0.0
 10
16.544475
 20
242.601618
 30
0.0
 10
16.764370
 20
241.850783
 30
0.0
  0
SPLINE
  5
1f0
100
AcDbEntity
  8
0
 62
7
100
AcDbSpline
 70
8
 71
3
 72
8
 73
4
 74
0
 40
0
 40
0
 40
0
 40
0
 40
1
 40
1
 40
1
 40
1
 10
16.764370
 20
241.850783
 30
0.0
 10
16.991912
 20
241.092461
 30
0.0
 10
17.310365
 20
240.440184
 30
0.0
 10
17.719940
 20
239.894189
 30
0.0
  0
SPLINE
  5
1f1
100
AcDbEntity
  8
0
 62
7
100
AcDbSpline
 70
8
 71
3
 72
8
 73
4
 74
0
 40
0
 40
0
 40
0
 40
0
 40
1
 40
1
 40
1
 40
1
 10
17.719940
 20
239.894189
 30
0.0
 10
18.137029
 20
239.348195
 30
0.0
 10
18.637567
 20
238.915893
 30
0.0
 10
19.221529
 20
238.612601
 30
0.0
  0
SPLINE
  5
1f2
100
AcDbEntity
  8
0
 62
7
100
AcDbSpline
 70
8
 71
3
 72
8
 73
4
 74
0
 40
0
 40
0
 40
0
 40
0
 40
1
 40
1
 40
1
 40
1
 10
19.221529
 20
238.612601
 30
0.0
 10
19.805412
 20
238.309203
 30
0.0
 10
20.465256
 20
238.157570
 30
0.0
 10
21.185690
 20
238.157570
 30
0.0
  0
LWPOLYLINE
  5
1f3
100
AcDbEntity
  8
0
 62
7
100
AcDbPolyline
 90
3
 70
1
 10
166.705650
 20
192.708609
 30
0.0
 10
166.705650
 20
200.671800
 30
0.0
 10
161.374508
 20
192.708609
 30
0.0
  0
SPLINE
  5
1f4
100
AcDbEntity
  8
0
 62
7
100
AcDbSpline
 70
8
 71
3
 72
8
 73
4
 74
0
 40
0
 40
0
 40
0
 40
0
 40
1
 40
1
 40
1
 40
1
 10
38.177100
 20
188.738325
 30
0.0
 10
37.759719
 20
189.801235
 30
0.0
 10
37.508630
 20
190.935980
 30
0.0
 10
37.458835
 20
192.118668
 30
0.0
  0
SPLINE
  5
1f5
100
AcDbEntity
  8
0
 62
7
100
AcDbSpline
 70
8
 71
3
 72
8
 73
4
 74
0
 40
0
 40
0
 40
0
 40
0
 40
1
 40
1
 40
1
 40
1
 10
37.458835
 20
192.118668
 30
0.0
 10
37.419518
 20
192.160075
 30
0.0
 10
37.378878
 20
192.201006
 30
0.0
 10
37.336862
 20
192.241435
 30
0.0
  0
SPLINE
  5
1f6
100
AcDbEntity
  8
0
 62
7
100
AcDbSpline
 70
8
 71
3
 72
8
 73
4
 74
0
 40
0
 40
0
 40
0
 40
0
 40
1
 40
1
 40
1
 40
1
 10
37.336862
 20
192.241435
 30
0.0
 10
37.007112
 20
192.571211
 30
0.0
 10
36.579598
 20
192.888764
 30
0.0
 10
36.060592
 20
193.200232
 30
0.0
  0
SPLINE
  5
1f7
100
AcDbEntity
  8
0
 62
7
100
AcDbSpline
 70
8
 71
3
 72
8
 73
4
 74
0
 40
0
 40
0
 40
0
 40
0
 40
1
 40
1
 40
1
 40
1
 10
36.060592
 20
193.200232
 30
0.0
 10
35.541453
 20
193.511646
 30
0.0
 10
34.936959
 20
193.829199
 30
0.0
 10
34.246873
 20
194.146726
 30
0.0
  0
SPLINE
  5
1f8
100
AcDbEntity
  8
0
 62
7
100
AcDbSpline
 70
8
 71
3
 72
8
 73
4
 74
0
 40
0
 40
0
 40
0
 40
0
 40
1
 40
1
 40
1
 40
1
 10
34.246873
 20
194.146726
 30
0.0
 10
33.538504
 20
193.816975
 30
0.0
 10
32.927846
 20
193.481113
 30
0.0
 10
32.402621
 20
193.157475
 30
0.0
  0
SPLINE
  5
1f9
100
AcDbEntity
  8
0
 62
7
100
AcDbSpline
 70
8
 71
3
 72
8
 73
4
 74
0
 40
0
 40
0
 40
0
 40
0
 40
1
 40
1
 40
1
 40
1
 10
32.402621
 20
193.157475
 30
0.0
 10
31.877476
 20
192.827725
 30
0.0
 10
31.443904
 20
192.497948
 30
0.0
 10
31.095818
 20
192.162086
 30
0.0
  0
SPLINE
  5
1fa
100
AcDbEntity
  8
0
 62
7
100
AcDbSpline
 70
8
 71
3
 72
8
 73
4
 74
0
 40
0
 40
0
 40
0
 40
0
 40
1
 40
1
 40
1
 40
1
 10
31.095818
 20
192.162086
 30
0.0
 10
30.472962
 20
191.545289
 30
0.0
 10
30.167633
 20
190.800302
 30
0.0
 10
30.167633
 20
189.945301
 30
0.0
  0
SPLINE
  5
1fb
100
AcDbEntity
  8
0
 62
7
100
AcDbSpline
 70
8
 71
3
 72
8
 73
4
 74
0
 40
0
 40
0
 40
0
 40
0
 40
1
 40
1
 40
1
 40
1
 10
30.167633
 20
189.945301
 30
0.0
 10
30.167633
 20
189.346893
 30
0.0
 10
30.265264
 20
188.815583
 30
0.0
 10
30.460712
 20
188.351478
 30
0.0
  0
SPLINE
  5
1fc
100
AcDbEntity
  8
0
 62
7
100
AcDbSpline
 70
8
 71
3
 72
8
 73
4
 74
0
 40
0
 40
0
 40
0
 40
0
 40
1
 40
1
 40
1
 40
1
 10
30.460712
 20
188.351478
 30
0.0
 10
30.656107
 20
187.887398
 30
0.0
 10
30.937041
 20
187.490418
 30
0.0
 10
31.291213
 20
187.172865
 30
0.0
  0
SPLINE
  5
1fd
100
AcDbEntity
  8
0
 62
7
100
AcDbSpline
 70
8
 71
3
 72
8
 73
4
 74
0
 40
0
 40
0
 40
0
 40
0
 40
1
 40
1
 40
1
 40
1
 10
31.291213
 20
187.172865
 30
0.0
 10
31.651496
 20
186.849226
 30
0.0
 10
32.079009
 20
186.604963
 30
0.0
 10
32.579786
 20
186.440101
 30
0.0
  0
SPLINE
  5
1fe
100
AcDbEntity
  8
0
 62
7
100
AcDbSpline
 70
8
 71
3
 72
8
 73
4
 74
0
 40
0
 40
0
 40
0
 40
0
 40
1
 40
1
 40
1
 40
1
 10
32.579786
 20
186.440101
 30
0.0
 10
33.080484
 20
186.269101
 30
0.0
 10
33.636215
 20
186.189699
 30
0.0
 10
34.246873
 20
186.189699
 30
0.0
  0
SPLINE
  5
1ff
100
AcDbEntity
  8
0
 62
7
100
AcDbSpline
 70
8
 71
3
 72
8
 73
4
 74
0
 40
0
 40
0
 40
0
 40
0
 40
1
 40
1
 40
1
 40
1
 10
34.246873
 20
186.189699
 30
0.0
 10
34.851446
 20
186.189699
 30
0.0
 10
35.407124
 20
186.275186
 30
0.0
 10
35.907901
 20
186.446186
 30
0.0
  0
SPLINE
  5
200
100
AcDbEntity
  8
0
 62
7
100
AcDbSpline
 70
8
 71
3
 72
8
 73
4
 74
0
 40
0
 40
0
 40
0
 40
0
 40
1
 40
1
 40
1
 40
1
 10
35.907901
 20
186.446186
 30
0.0
 10
36.408677
 20
186.617187
 30
0.0
 10
36.842250
 20
186.867535
 30
0.0
 10
37.208619
 20
187.191174
 30
0.0
  0
SPLINE
  5
201
100
AcDbEntity
  8
0
 62
7
100
AcDbSpline
 70
8
 71
3
 72
8
 73
4
 74
0
 40
0
 40
0
 40
0
 40
0
 40
1
 40
1
 40
1
 40
1
 10
37.208619
 20
187.191174
 30
0.0
 10
37.568928
 20
187.508700
 30
0.0
 10
37.849810
 20
187.905681
 30
0.0
 10
38.045258
 20
188.369787
 30
0.0
  0
SPLINE
  5
202
100
AcDbEntity
  8
0
 62
7
100
AcDbSpline
 70
8
 71
3
 72
8
 73
4
 74
0
 40
0
 40
0
 40
0
 40
0
 40
1
 40
1
 40
1
 40
1
 10
38.045258
 20
188.369787
 30
0.0
 10
38.095264
 20
188.488585
 30
0.0
 10
38.139291
 20
188.611510
 30
0.0
 10
38.177100
 20
188.738325
 30
0.0
  0
LWPOLYLINE
  5
203
100
AcDbEntity
  8
0
 62
7
100
AcDbPolyline
 90
1
 70
1
 10
21.185690
 20
238.157570
 30
0.0
  0
SPLINE
  5
204
100
AcDbEntity
  8
0
 62
7
100
AcDbSpline
 70
8
 71
3
 72
8
 73
4
 74
0
 40
0
 40
0
 40
0
 40
0
 40
1
 40
1
 40
1
 40
1
 10
42.782781
 20
192.560178
 30
0.0
 10
47.338880
 20
191.126930
 30
0.0
 10
50.545947
 20
188.414713
 30
0.0
 10
51.278261
 20
183.780324
 30
0.0
  0
LWPOLYLINE
  5
205
100
AcDbEntity
  8
0
 62
7
100
AcDbPolyline
 90
1
 70
1
 10
38.177100
 20
188.738325
 30
0.0
  0
SPLINE
  5
206
100
AcDbEntity
  8
0
 62
7
100
AcDbSpline
 70
8
 71
3
 72
8
 73
4
 74
0
 40
0
 40
0
 40
0
 40
0
 40
1
 40
1
 40
1
 40
1
 10
68.088828
 20
185.489797
 30
0.0
 10
67.641893
 20
188.087344
 30
0.0
 10
64.672051
 20
192.828677
 30
0.0
 10
59.954398
 20
198.334524
 30
0.0
  0
SPLINE
  5
207
100
AcDbEntity
  8
0
 62
7
100
AcDbSpline
 70
8
 71
3
 72
8
 73
4
 74
0
 40
0
 40
0
 40
0
 40
0
 40
1
 40
1
 40
1
 40
1
 10
59.954398
 20
198.334524
 30
0.0
 10
55.026216
 20
195.238582
 30
0.0
 10
45.580882
 20
194.505024
 30
0.0
 10
41.554135
 20
199.392249
 30
0.0
  0
SPLINE
  5
208
100
AcDbEntity
  8
0
 62
7
100
AcDbSpline
 70
8
 71
3
 72
8
 73
4
 74
0
 40
0
 40
0
 40
0
 40
0
 40
1
 40
1
 40
1
 40
1
 10
41.554135
 20
199.392249
 30
0.0
 10
40.982186
 20
198.335715
 30
0.0
 10
40.095382
 20
197.374960
 30
0.0
 10
38.894094
 20
196.510063
 30
0.0
  0
SPLINE
  5
209
100
AcDbEntity
  8
0
 62
7
100
AcDbSpline
 70
8
 71
3
 72
8
 73
4
 74
0
 40
0
 40
0
 40
0
 40
0
 40
1
 40
1
 40
1
 40
1
 10
38.894094
 20
196.510063
 30
0.0
 10
40.819652
 20
195.405772
 30
0.0
 10
42.115211
 20
194.087935
 30
0.0
 10
42.782781
 20
192.560178
 30
0.0
  0
LWPOLYLINE
  5
20a
100
AcDbEntity
  8
0
 62
7
100
AcDbPolyline
 90
2
 70
0
 10
51.278261
 20
183.780324
 30
0.0
 10
68.088828
 20
185.489797
 30
0.0
  0
SPLINE
  5
20b
100
AcDbEntity
  8
0
 62
7
100
AcDbSpline
 70
8
 71
3
 72
8
 73
4
 74
0
 40
0
 40
0
 40
0
 40
0
 40
1
 40
1
 40
1
 40
1
 10
31.150798
 20
202.500759
 30
0.0
 10
31.150798
 20
200.919080
 30
0.0
 10
32.182805
 20
199.624447
 30
0.0
 10
34.246873
 20
198.622973
 30
0.0
  0
SPLINE
  5
20c
100
AcDbEntity
  8
0
 62
7
100
AcDbSpline
 70
8
 71
3
 72
8
 73
4
 74
0
 40
0
 40
0
 40
0
 40
0
 40
1
 40
1
 40
1
 40
1
 10
34.246873
 20
198.622973
 30
0.0
 10
36.329250
 20
199.624447
 30
0.0
 10
37.373481
 20
200.919080
 30
0.0
 10
37.373481
 20
202.500759
 30
0.0
  0
SPLINE
  5
20d
100
AcDbEntity
  8
0
 62
7
100
AcDbSpline
 70
8
 71
3
 72
8
 73
4
 74
0
 40
0
 40
0
 40
0
 40
0
 40
1
 40
1
 40
1
 40
1
 10
37.373481
 20
202.500759
 30
0.0
 10
37.373481
 20
203.422885
 30
0.0
 10
37.104823
 20
204.131254
 30
0.0
 10
36.561289
 20
204.631951
 30
0.0
  0
SPLINE
  5
20e
100
AcDbEntity
  8
0
 62
7
100
AcDbSpline
 70
8
 71
3
 72
8
 73
4
 74
0
 40
0
 40
0
 40
0
 40
0
 40
1
 40
1
 40
1
 40
1
 10
36.561289
 20
204.631951
 30
0.0
 10
36.017782
 20
205.132728
 30
0.0
 10
35.248347
 20
205.383077
 30
0.0
 10
34.246873
 20
205.383077
 30
0.0
  0
SPLINE
  5
20f
100
AcDbEntity
  8
0
 62
7
100
AcDbSpline
 70
8
 71
3
 72
8
 73
4
 74
0
 40
0
 40
0
 40
0
 40
0
 40
1
 40
1
 40
1
 40
1
 10
34.246873
 20
205.383077
 30
0.0
 10
33.275931
 20
205.383077
 30
0.0
 10
32.518641
 20
205.132728
 30
0.0
 10
31.975187
 20
204.631951
 30
0.0
  0
SPLINE
  5
210
100
AcDbEntity
  8
0
 62
7
100
AcDbSpline
 70
8
 71
3
 72
8
 73
4
 74
0
 40
0
 40
0
 40
0
 40
0
 40
1
 40
1
 40
1
 40
1
 10
31.975187
 20
204.631951
 30
0.0
 10
31.425594
 20
204.131254
 30
0.0
 10
31.150798
 20
203.422885
 30
0.0
 10
31.150798
 20
202.500759
 30
0.0
  0
LWPOLYLINE
  5
211
100
AcDbEntity
  8
0
 62
7
100
AcDbPolyline
 90
1
 70
1
 10
42.782781
 20
192.560178
 30
0.0
  0
SPLINE
  5
212
100
AcDbEntity
  8
0
 62
7
100
AcDbSpline
 70
8
 71
3
 72
8
 73
4
 74
0
 40
0
 40
0
 40
0
 40
0
 40
1
 40
1
 40
1
 40
1
 10
40.808090
 20
286.100494
 30
0.0
 10
39.397490
 20
285.485179
 30
0.0
 10
37.940615
 20
284.830282
 30
0.0
 10
36.452096
 20
284.147048
 30
0.0
  0
SPLINE
  5
213
100
AcDbEntity
  8
0
 62
7
100
AcDbSpline
 70
8
 71
3
 72
8
 73
4
 74
0
 40
0
 40
0
 40
0
 40
0
 40
1
 40
1
 40
1
 40
1
 10
36.452096
 20
284.147048
 30
0.0
 10
36.143327
 20
283.421111
 30
0.0
 10
35.909091
 20
282.482634
 30
0.0
 10
35.749415
 20
281.336406
 30
0.0
  0
SPLINE
  5
214
100
AcDbEntity
  8
0
 62
7
100
AcDbSpline
 70
8
 71
3
 72
8
 73
4
 74
0
 40
0
 40
0
 40
0
 40
0
 40
1
 40
1
 40
1
 40
1
 10
35.749415
 20
281.336406
 30
0.0
 10
35.572356
 20
280.108951
 30
0.0
 10
35.486843
 20
278.582332
 30
0.0
 10
35.486843
 20
276.756389
 30
0.0
  0
SPLINE
  5
215
100
AcDbEntity
  8
0
 62
7
100
AcDbSpline
 70
8
 71
3
 72
8
 73
4
 74
0
 40
0
 40
0
 40
0
 40
0
 40
1
 40
1
 40
1
 40
1
 10
35.486843
 20
276.756389
 30
0.0
 10
35.486843
 20
274.942750
 30
0.0
 10
35.572356
 20
273.428275
 30
0.0
 10
35.749415
 20
272.200820
 30
0.0
  0
SPLINE
  5
216
100
AcDbEntity
  8
0
 62
7
100
AcDbSpline
 70
8
 71
3
 72
8
 73
4
 74
0
 40
0
 40
0
 40
0
 40
0
 40
1
 40
1
 40
1
 40
1
 10
35.749415
 20
272.200820
 30
0.0
 10
35.920415
 20
270.979450
 30
0.0
 10
36.176929
 20
270.002423
 30
0.0
 10
36.518850
 20
269.257357
 30
0.0
  0
SPLINE
  5
217
100
AcDbEntity
  8
0
 62
7
100
AcDbSpline
 70
8
 71
3
 72
8
 73
4
 74
0
 40
0
 40
0
 40
0
 40
0
 40
1
 40
1
 40
1
 40
1
 10
36.518850
 20
269.257357
 30
0.0
 10
36.854765
 20
268.518455
 30
0.0
 10
37.269976
 20
267.987171
 30
0.0
 10
37.758529
 20
267.669619
 30
0.0
  0
SPLINE
  5
218
100
AcDbEntity
  8
0
 62
7
100
AcDbSpline
 70
8
 71
3
 72
8
 73
4
 74
0
 40
0
 40
0
 40
0
 40
0
 40
1
 40
1
 40
1
 40
1
 10
37.758529
 20
267.669619
 30
0.0
 10
38.247082
 20
267.345980
 30
0.0
 10
38.814984
 20
267.187151
 30
0.0
 10
39.462313
 20
267.187151
 30
0.0
  0
SPLINE
  5
219
100
AcDbEntity
  8
0
 62
7
100
AcDbSpline
 70
8
 71
3
 72
8
 73
4
 74
0
 40
0
 40
0
 40
0
 40
0
 40
1
 40
1
 40
1
 40
1
 10
39.462313
 20
267.187151
 30
0.0
 10
40.115702
 20
267.187151
 30
0.0
 10
40.689742
 20
267.345980
 30
0.0
 10
41.184380
 20
267.669619
 30
0.0
  0
SPLINE
  5
21a
100
AcDbEntity
  8
0
 62
7
100
AcDbSpline
 70
8
 71
3
 72
8
 73
4
 74
0
 40
0
 40
0
 40
0
 40
0
 40
1
 40
1
 40
1
 40
1
 10
41.184380
 20
267.669619
 30
0.0
 10
41.679072
 20
267.987171
 30
0.0
 10
42.100421
 20
268.524540
 30
0.0
 10
42.436283
 20
269.269580
 30
0.0
  0
SPLINE
  5
21b
100
AcDbEntity
  8
0
 62
7
100
AcDbSpline
 70
8
 71
3
 72
8
 73
4
 74
0
 40
0
 40
0
 40
0
 40
0
 40
1
 40
1
 40
1
 40
1
 10
42.436283
 20
269.269580
 30
0.0
 10
42.778283
 20
270.014568
 30
0.0
 10
43.034770
 20
270.997733
 30
0.0
 10
43.205691
 20
272.219102
 30
0.0
  0
SPLINE
  5
21c
100
AcDbEntity
  8
0
 62
7
100
AcDbSpline
 70
8
 71
3
 72
8
 73
4
 74
0
 40
0
 40
0
 40
0
 40
0
 40
1
 40
1
 40
1
 40
1
 10
43.205691
 20
272.219102
 30
0.0
 10
43.382856
 20
273.440499
 30
0.0
 10
43.468264
 20
274.954894
 30
0.0
 10
43.468264
 20
276.756389
 30
0.0
  0
SPLINE
  5
21d
100
AcDbEntity
  8
0
 62
7
100
AcDbSpline
 70
8
 71
3
 72
8
 73
4
 74
0
 40
0
 40
0
 40
0
 40
0
 40
1
 40
1
 40
1
 40
1
 10
43.468264
 20
276.756389
 30
0.0
 10
43.468264
 20
278.557884
 30
0.0
 10
43.382856
 20
280.072359
 30
0.0
 10
43.205691
 20
281.299814
 30
0.0
  0
SPLINE
  5
21e
100
AcDbEntity
  8
0
 62
7
100
AcDbSpline
 70
8
 71
3
 72
8
 73
4
 74
0
 40
0
 40
0
 40
0
 40
0
 40
1
 40
1
 40
1
 40
1
 10
43.205691
 20
281.299814
 30
0.0
 10
43.034770
 20
282.527269
 30
0.0
 10
42.778283
 20
283.516520
 30
0.0
 10
42.436283
 20
284.267645
 30
0.0
  0
SPLINE
  5
21f
100
AcDbEntity
  8
0
 62
7
100
AcDbSpline
 70
8
 71
3
 72
8
 73
4
 74
0
 40
0
 40
0
 40
0
 40
0
 40
1
 40
1
 40
1
 40
1
 10
42.436283
 20
284.267645
 30
0.0
 10
42.100421
 20
285.024909
 30
0.0
 10
41.679072
 20
285.562278
 30
0.0
 10
41.184380
 20
285.892055
 30
0.0
  0
SPLINE
  5
220
100
AcDbEntity
  8
0
 62
7
100
AcDbSpline
 70
8
 71
3
 72
8
 73
4
 74
0
 40
0
 40
0
 40
0
 40
0
 40
1
 40
1
 40
1
 40
1
 10
41.184380
 20
285.892055
 30
0.0
 10
41.063704
 20
285.971033
 30
0.0
 10
40.938212
 20
286.040565
 30
0.0
 10
40.808090
 20
286.100494
 30
0.0
  0
LWPOLYLINE
  5
221
100
AcDbEntity
  8
0
 62
7
100
AcDbPolyline
 90
1
 70
1
 10
31.150798
 20
202.500759
 30
0.0
  0
LWPOLYLINE
  5
222
100
AcDbEntity
  8
0
 62
7
100
AcDbPolyline
 90
1
 70
1
 10
40.808090
 20
286.100494
 30
0.0
  0
SPLINE
  5
223
100
AcDbEntity
  8
0
 62
7
100
AcDbSpline
 70
8
 71
3
 72
8
 73
4
 74
0
 40
0
 40
0
 40
0
 40
0
 40
1
 40
1
 40
1
 40
1
 10
137.670752
 20
297.827700
 30
0.0
 10
136.824905
 20
297.773037
 30
0.0
 10
135.965988
 20
297.672839
 30
0.0
 10
135.088577
 20
297.517661
 30
0.0
  0
LWPOLYLINE
  5
224
100
AcDbEntity
  8
0
 62
7
100
AcDbPolyline
 90
2
 70
0
 10
137.670752
 20
294.996473
 30
0.0
 10
137.670752
 20
297.827700
 30
0.0
  0
SPLINE
  5
225
100
AcDbEntity
  8
0
 62
7
100
AcDbSpline
 70
8
 71
3
 72
8
 73
4
 74
0
 40
0
 40
0
 40
0
 40
0
 40
1
 40
1
 40
1
 40
1
 10
132.697643
 20
294.704717
 30
0.0
 10
134.311416
 20
295.263914
 30
0.0
 10
136.022927
 20
295.331250
 30
0.0
 10
137.670752
 20
294.996473
 30
0.0
  0
LWPOLYLINE
  5
226
100
AcDbEntity
  8
0
 62
7
100
AcDbPolyline
 90
2
 70
0
 10
135.088577
 20
297.517661
 30
0.0
 10
132.697643
 20
294.704717
 30
0.0
  0
LWPOLYLINE
  5
227
100
AcDbEntity
  8
0
 62
7
100
AcDbPolyline
 90
1
 70
1
 10
137.670752
 20
294.996473
 30
0.0
  0
SPLINE
  5
228
100
AcDbEntity
  8
0
 62
7
100
AcDbSpline
 70
8
 71
3
 72
8
 73
4
 74
0
 40
0
 40
0
 40
0
 40
0
 40
1
 40
1
 40
1
 40
1
 10
142.537789
 20
292.651286
 30
0.0
 10
143.967967
 20
291.471244
 30
0.0
 10
145.123429
 20
289.932613
 30
0.0
 10
145.801424
 20
288.146120
 30
0.0
  0
SPLINE
  5
229
100
AcDbEntity
  8
0
 62
7
100
AcDbSpline
 70
8
 71
3
 72
8
 73
4
 74
0
 40
0
 40
0
 40
0
 40
0
 40
1
 40
1
 40
1
 40
1
 10
145.801424
 20
288.146120
 30
0.0
 10
139.918202
 20
284.774481
 30
0.0
 10
135.114665
 20
287.581578
 30
0.0
 10
131.242726
 20
293.015194
 30
0.0
  0
SPLINE
  5
22a
100
AcDbEntity
  8
0
 62
7
100
AcDbSpline
 70
8
 71
3
 72
8
 73
4
 74
0
 40
0
 40
0
 40
0
 40
0
 40
1
 40
1
 40
1
 40
1
 10
131.242726
 20
293.015194
 30
0.0
 10
112.030272
 20
275.766398
 30
0.0
 10
116.154756
 20
233.390414
 30
0.0
 10
129.665016
 20
237.659571
 30
0.0
  0
SPLINE
  5
22b
100
AcDbEntity
  8
0
 62
7
100
AcDbSpline
 70
8
 71
3
 72
8
 73
4
 74
0
 40
0
 40
0
 40
0
 40
0
 40
1
 40
1
 40
1
 40
1
 10
129.665016
 20
237.659571
 30
0.0
 10
131.772237
 20
239.764967
 30
0.0
 10
134.673525
 20
244.658700
 30
0.0
 10
138.251777
 20
250.218231
 30
0.0
  0
SPLINE
  5
22c
100
AcDbEntity
  8
0
 62
7
100
AcDbSpline
 70
8
 71
3
 72
8
 73
4
 74
0
 40
0
 40
0
 40
0
 40
0
 40
1
 40
1
 40
1
 40
1
 10
138.251777
 20
250.218231
 30
0.0
 10
129.709942
 20
250.672600
 30
0.0
 10
126.441676
 20
257.353276
 30
0.0
 10
125.880072
 20
266.246636
 30
0.0
  0
SPLINE
  5
22d
100
AcDbEntity
  8
0
 62
7
100
AcDbSpline
 70
8
 71
3
 72
8
 73
4
 74
0
 40
0
 40
0
 40
0
 40
0
 40
1
 40
1
 40
1
 40
1
 10
125.880072
 20
266.246636
 30
0.0
 10
133.627045
 20
266.652243
 30
0.0
 10
139.603718
 20
259.285290
 30
0.0
 10
139.231211
 20
251.729266
 30
0.0
  0
SPLINE
  5
22e
100
AcDbEntity
  8
0
 62
7
100
AcDbSpline
 70
8
 71
3
 72
8
 73
4
 74
0
 40
0
 40
0
 40
0
 40
0
 40
1
 40
1
 40
1
 40
1
 10
139.231211
 20
251.729266
 30
0.0
 10
140.953728
 20
254.365813
 30
0.0
 10
142.820707
 20
257.105573
 30
0.0
 10
144.820640
 20
259.734156
 30
0.0
  0
SPLINE
  5
22f
100
AcDbEntity
  8
0
 62
7
100
AcDbSpline
 70
8
 71
3
 72
8
 73
4
 74
0
 40
0
 40
0
 40
0
 40
0
 40
1
 40
1
 40
1
 40
1
 10
144.820640
 20
259.734156
 30
0.0
 10
138.960066
 20
263.499097
 30
0.0
 10
139.210944
 20
269.707889
 30
0.0
 10
142.260082
 20
276.481884
 30
0.0
  0
SPLINE
  5
230
100
AcDbEntity
  8
0
 62
7
100
AcDbSpline
 70
8
 71
3
 72
8
 73
4
 74
0
 40
0
 40
0
 40
0
 40
0
 40
1
 40
1
 40
1
 40
1
 10
142.260082
 20
276.481884
 30
0.0
 10
147.150667
 20
274.216971
 30
0.0
 10
149.094666
 20
268.523932
 30
0.0
 10
147.858163
 20
263.496002
 30
0.0
  0
SPLINE
  5
231
100
AcDbEntity
  8
0
 62
7
100
AcDbSpline
 70
8
 71
3
 72
8
 73
4
 74
0
 40
0
 40
0
 40
0
 40
0
 40
1
 40
1
 40
1
 40
1
 10
147.858163
 20
263.496002
 30
0.0
 10
150.219595
 20
266.235550
 30
0.0
 10
154.519736
 20
268.063821
 30
0.0
 10
158.136378
 20
269.630551
 30
0.0
  0
SPLINE
  5
232
100
AcDbEntity
  8
0
 62
7
100
AcDbSpline
 70
8
 71
3
 72
8
 73
4
 74
0
 40
0
 40
0
 40
0
 40
0
 40
1
 40
1
 40
1
 40
1
 10
158.136378
 20
269.630551
 30
0.0
 10
158.550001
 20
270.146039
 30
0.0
 10
159.058425
 20
270.697431
 30
0.0
 10
159.658129
 20
271.284832
 30
0.0
  0
SPLINE
  5
233
100
AcDbEntity
  8
0
 62
7
100
AcDbSpline
 70
8
 71
3
 72
8
 73
4
 74
0
 40
0
 40
0
 40
0
 40
0
 40
1
 40
1
 40
1
 40
1
 10
159.658129
 20
271.284832
 30
0.0
 10
160.555808
 20
272.151925
 30
0.0
 10
161.654993
 20
273.116860
 30
0.0
 10
162.967961
 20
274.179400
 30
0.0
  0
SPLINE
  5
234
100
AcDbEntity
  8
0
 62
7
100
AcDbSpline
 70
8
 71
3
 72
8
 73
4
 74
0
 40
0
 40
0
 40
0
 40
0
 40
1
 40
1
 40
1
 40
1
 10
162.967961
 20
274.179400
 30
0.0
 10
164.140436
 20
275.125894
 30
0.0
 10
165.123601
 20
275.950362
 30
0.0
 10
165.923542
 20
276.670955
 30
0.0
  0
SPLINE
  5
235
100
AcDbEntity
  8
0
 62
7
100
AcDbSpline
 70
8
 71
3
 72
8
 73
4
 74
0
 40
0
 40
0
 40
0
 40
0
 40
1
 40
1
 40
1
 40
1
 10
165.923542
 20
276.670955
 30
0.0
 10
166.717424
 20
277.385410
 30
0.0
 10
167.364754
 20
278.057187
 30
0.0
 10
167.853307
 20
278.680069
 30
0.0
  0
SPLINE
  5
236
100
AcDbEntity
  8
0
 62
7
100
AcDbSpline
 70
8
 71
3
 72
8
 73
4
 74
0
 40
0
 40
0
 40
0
 40
0
 40
1
 40
1
 40
1
 40
1
 10
167.853307
 20
278.680069
 30
0.0
 10
168.341860
 20
279.309010
 30
0.0
 10
168.689920
 20
279.925806
 30
0.0
 10
168.897538
 20
280.530379
 30
0.0
  0
SPLINE
  5
237
100
AcDbEntity
  8
0
 62
7
100
AcDbSpline
 70
8
 71
3
 72
8
 73
4
 74
0
 40
0
 40
0
 40
0
 40
0
 40
1
 40
1
 40
1
 40
1
 10
168.897538
 20
280.530379
 30
0.0
 10
169.111269
 20
281.141038
 30
0.0
 10
169.215065
 20
281.806650
 30
0.0
 10
169.215065
 20
282.533408
 30
0.0
  0
SPLINE
  5
238
100
AcDbEntity
  8
0
 62
7
100
AcDbSpline
 70
8
 71
3
 72
8
 73
4
 74
0
 40
0
 40
0
 40
0
 40
0
 40
1
 40
1
 40
1
 40
1
 10
169.215065
 20
282.533408
 30
0.0
 10
169.215065
 20
283.681435
 30
0.0
 10
168.891453
 20
284.573027
 30
0.0
 10
168.244123
 20
285.208133
 30
0.0
  0
SPLINE
  5
239
100
AcDbEntity
  8
0
 62
7
100
AcDbSpline
 70
8
 71
3
 72
8
 73
4
 74
0
 40
0
 40
0
 40
0
 40
0
 40
1
 40
1
 40
1
 40
1
 10
168.244123
 20
285.208133
 30
0.0
 10
167.602958
 20
285.849325
 30
0.0
 10
166.686891
 20
286.166851
 30
0.0
 10
165.489969
 20
286.166851
 30
0.0
  0
SPLINE
  5
23a
100
AcDbEntity
  8
0
 62
7
100
AcDbSpline
 70
8
 71
3
 72
8
 73
4
 74
0
 40
0
 40
0
 40
0
 40
0
 40
1
 40
1
 40
1
 40
1
 10
165.489969
 20
286.166851
 30
0.0
 10
164.989193
 20
286.166851
 30
0.0
 10
164.512943
 20
286.069140
 30
0.0
 10
164.061008
 20
285.873772
 30
0.0
  0
SPLINE
  5
23b
100
AcDbEntity
  8
0
 62
7
100
AcDbSpline
 70
8
 71
3
 72
8
 73
4
 74
0
 40
0
 40
0
 40
0
 40
0
 40
1
 40
1
 40
1
 40
1
 10
164.061008
 20
285.873772
 30
0.0
 10
163.609126
 20
285.678324
 30
0.0
 10
163.206086
 20
285.379134
 30
0.0
 10
162.864139
 20
284.988238
 30
0.0
  0
SPLINE
  5
23c
100
AcDbEntity
  8
0
 62
7
100
AcDbSpline
 70
8
 71
3
 72
8
 73
4
 74
0
 40
0
 40
0
 40
0
 40
0
 40
1
 40
1
 40
1
 40
1
 10
162.864139
 20
284.988238
 30
0.0
 10
162.516000
 20
284.591337
 30
0.0
 10
162.228980
 20
284.102784
 30
0.0
 10
161.990855
 20
283.510434
 30
0.0
  0
SPLINE
  5
23d
100
AcDbEntity
  8
0
 62
7
100
AcDbSpline
 70
8
 71
3
 72
8
 73
4
 74
0
 40
0
 40
0
 40
0
 40
0
 40
1
 40
1
 40
1
 40
1
 10
161.990855
 20
283.510434
 30
0.0
 10
161.758789
 20
282.918085
 30
0.0
 10
161.618321
 20
282.240249
 30
0.0
 10
161.575565
 20
281.464676
 30
0.0
  0
LWPOLYLINE
  5
23e
100
AcDbEntity
  8
0
 62
7
100
AcDbPolyline
 90
2
 70
0
 10
142.537789
 20
297.678845
 30
0.0
 10
142.537789
 20
292.651286
 30
0.0
  0
SPLINE
  5
23f
100
AcDbEntity
  8
0
 62
7
100
AcDbSpline
 70
8
 71
3
 72
8
 73
4
 74
0
 40
0
 40
0
 40
0
 40
0
 40
1
 40
1
 40
1
 40
1
 10
156.580284
 20
281.464676
 30
0.0
 10
156.690219
 20
282.795980
 30
0.0
 10
156.977239
 20
284.011211
 30
0.0
 10
157.447509
 20
285.092114
 30
0.0
  0
SPLINE
  5
240
100
AcDbEntity
  8
0
 62
7
100
AcDbSpline
 70
8
 71
3
 72
8
 73
4
 74
0
 40
0
 40
0
 40
0
 40
0
 40
1
 40
1
 40
1
 40
1
 10
157.447509
 20
285.092114
 30
0.0
 10
157.923812
 20
286.179075
 30
0.0
 10
158.546615
 20
287.101201
 30
0.0
 10
159.322188
 20
287.864497
 30
0.0
  0
SPLINE
  5
241
100
AcDbEntity
  8
0
 62
7
100
AcDbSpline
 70
8
 71
3
 72
8
 73
4
 74
0
 40
0
 40
0
 40
0
 40
0
 40
1
 40
1
 40
1
 40
1
 10
159.322188
 20
287.864497
 30
0.0
 10
160.091702
 20
288.627926
 30
0.0
 10
161.007663
 20
289.220196
 30
0.0
 10
162.064118
 20
289.641624
 30
0.0
  0
SPLINE
  5
242
100
AcDbEntity
  8
0
 62
7
100
AcDbSpline
 70
8
 71
3
 72
8
 73
4
 74
0
 40
0
 40
0
 40
0
 40
0
 40
1
 40
1
 40
1
 40
1
 10
162.064118
 20
289.641624
 30
0.0
 10
162.488774
 20
289.808497
 30
0.0
 10
162.931210
 20
289.941847
 30
0.0
 10
163.391321
 20
290.041674
 30
0.0
  0
SPLINE
  5
243
100
AcDbEntity
  8
0
 62
7
100
AcDbSpline
 70
8
 71
3
 72
8
 73
4
 74
0
 40
0
 40
0
 40
0
 40
0
 40
1
 40
1
 40
1
 40
1
 10
163.391321
 20
290.041674
 30
0.0
 10
162.096820
 20
290.604310
 30
0.0
 10
160.934929
 20
291.518499
 30
0.0
 10
160.059820
 20
292.667029
 30
0.0
  0
SPLINE
  5
244
100
AcDbEntity
  8
0
 62
7
100
AcDbSpline
 70
8
 71
3
 72
8
 73
4
 74
0
 40
0
 40
0
 40
0
 40
0
 40
1
 40
1
 40
1
 40
1
 10
160.059820
 20
292.667029
 30
0.0
 10
159.205718
 20
289.495151
 30
0.0
 10
156.140388
 20
286.947901
 30
0.0
 10
152.666091
 20
286.752982
 30
0.0
  0
SPLINE
  5
245
100
AcDbEntity
  8
0
 62
7
100
AcDbSpline
 70
8
 71
3
 72
8
 73
4
 74
0
 40
0
 40
0
 40
0
 40
0
 40
1
 40
1
 40
1
 40
1
 10
152.666091
 20
286.752982
 30
0.0
 10
151.835697
 20
290.579043
 30
0.0
 10
153.488707
 20
293.113222
 30
0.0
 10
156.471911
 20
294.774541
 30
0.0
  0
SPLINE
  5
246
100
AcDbEntity
  8
0
 62
7
100
AcDbSpline
 70
8
 71
3
 72
8
 73
4
 74
0
 40
0
 40
0
 40
0
 40
0
 40
1
 40
1
 40
1
 40
1
 10
156.471911
 20
294.774541
 30
0.0
 10
151.362145
 20
295.738973
 30
0.0
 10
146.998584
 20
297.159548
 30
0.0
 10
142.537789
 20
297.678845
 30
0.0
  0
LWPOLYLINE
  5
247
100
AcDbEntity
  8
0
 62
7
100
AcDbPolyline
 90
2
 70
0
 10
161.575565
 20
281.464676
 30
0.0
 10
156.580284
 20
281.464676
 30
0.0
  0
LWPOLYLINE
  5
248
100
AcDbEntity
  8
0
 62
7
100
AcDbPolyline
 90
1
 70
1
 10
142.537789
 20
297.678845
 30
0.0
  0
SPLINE
  5
249
100
AcDbEntity
  8
0
 62
7
100
AcDbSpline
 70
8
 71
3
 72
8
 73
4
 74
0
 40
0
 40
0
 40
0
 40
0
 40
1
 40
1
 40
1
 40
1
 10
156.061278
 20
263.303332
 30
0.0
 10
156.061278
 20
263.802098
 30
0.0
 10
156.088212
 20
264.284486
 30
0.0
 10
156.141896
 20
264.750550
 30
0.0
  0
SPLINE
  5
24a
100
AcDbEntity
  8
0
 62
7
100
AcDbSpline
 70
8
 71
3
 72
8
 73
4
 74
0
 40
0
 40
0
 40
0
 40
0
 40
1
 40
1
 40
1
 40
1
 10
156.141896
 20
264.750550
 30
0.0
 10
154.031765
 20
262.928259
 30
0.0
 10
152.274746
 20
260.499543
 30
0.0
 10
150.763737
 20
258.405551
 30
0.0
  0
SPLINE
  5
24b
100
AcDbEntity
  8
0
 62
7
100
AcDbSpline
 70
8
 71
3
 72
8
 73
4
 74
0
 40
0
 40
0
 40
0
 40
0
 40
1
 40
1
 40
1
 40
1
 10
150.763737
 20
258.405551
 30
0.0
 10
154.651498
 20
259.478039
 30
0.0
 10
158.299415
 20
257.229398
 30
0.0
 10
161.569135
 20
253.425378
 30
0.0
  0
SPLINE
  5
24c
100
AcDbEntity
  8
0
 62
7
100
AcDbSpline
 70
8
 71
3
 72
8
 73
4
 74
0
 40
0
 40
0
 40
0
 40
0
 40
1
 40
1
 40
1
 40
1
 10
161.569135
 20
253.425378
 30
0.0
 10
157.652852
 20
250.131765
 30
0.0
 10
151.680307
 20
251.406157
 30
0.0
 10
148.575157
 20
255.278176
 30
0.0
  0
SPLINE
  5
24d
100
AcDbEntity
  8
0
 62
7
100
AcDbSpline
 70
8
 71
3
 72
8
 73
4
 74
0
 40
0
 40
0
 40
0
 40
0
 40
1
 40
1
 40
1
 40
1
 10
148.575157
 20
255.278176
 30
0.0
 10
140.727456
 20
243.712206
 30
0.0
 10
134.895907
 20
231.131639
 30
0.0
 10
132.852663
 20
219.732622
 30
0.0
  0
LWPOLYLINE
  5
24e
100
AcDbEntity
  8
0
 62
7
100
AcDbPolyline
 90
2
 70
0
 10
164.914580
 20
263.303332
 30
0.0
 10
156.061278
 20
263.303332
 30
0.0
  0
SPLINE
  5
24f
100
AcDbEntity
  8
0
 62
7
100
AcDbSpline
 70
8
 71
3
 72
8
 73
4
 74
0
 40
0
 40
0
 40
0
 40
0
 40
1
 40
1
 40
1
 40
1
 10
142.206292
 20
220.107087
 30
0.0
 10
141.392090
 20
226.711669
 30
0.0
 10
147.108836
 20
232.939881
 30
0.0
 10
153.909818
 20
233.420497
 30
0.0
  0
SPLINE
  5
250
100
AcDbEntity
  8
0
 62
7
100
AcDbSpline
 70
8
 71
3
 72
8
 73
4
 74
0
 40
0
 40
0
 40
0
 40
0
 40
1
 40
1
 40
1
 40
1
 10
153.909818
 20
233.420497
 30
0.0
 10
155.378917
 20
227.095209
 30
0.0
 10
152.456409
 20
222.974270
 30
0.0
 10
147.295209
 20
220.310789
 30
0.0
  0
LWPOLYLINE
  5
251
100
AcDbEntity
  8
0
 62
7
100
AcDbPolyline
 90
2
 70
0
 10
132.852663
 20
219.732622
 30
0.0
 10
142.206292
 20
220.107087
 30
0.0
  0
SPLINE
  5
252
100
AcDbEntity
  8
0
 62
7
100
AcDbSpline
 70
8
 71
3
 72
8
 73
4
 74
0
 40
0
 40
0
 40
0
 40
0
 40
1
 40
1
 40
1
 40
1
 10
157.449441
 20
220.717295
 30
0.0
 10
157.614832
 20
220.969972
 30
0.0
 10
157.786044
 20
221.220612
 30
0.0
 10
157.961859
 20
221.469003
 30
0.0
  0
SPLINE
  5
253
100
AcDbEntity
  8
0
 62
7
100
AcDbSpline
 70
8
 71
3
 72
8
 73
4
 74
0
 40
0
 40
0
 40
0
 40
0
 40
1
 40
1
 40
1
 40
1
 10
157.961859
 20
221.469003
 30
0.0
 10
158.647209
 20
226.147736
 30
0.0
 10
161.684176
 20
230.359373
 30
0.0
 10
165.830700
 20
232.880482
 30
0.0
  0
SPLINE
  5
254
100
AcDbEntity
  8
0
 62
7
100
AcDbSpline
 70
8
 71
3
 72
8
 73
4
 74
0
 40
0
 40
0
 40
0
 40
0
 40
1
 40
1
 40
1
 40
1
 10
165.830700
 20
232.880482
 30
0.0
 10
165.681078
 20
233.576177
 30
0.0
 10
165.585537
 20
234.305792
 30
0.0
 10
165.542542
 20
235.069221
 30
0.0
  0
LWPOLYLINE
  5
255
100
AcDbEntity
  8
0
 62
7
100
AcDbPolyline
 90
2
 70
0
 10
147.295209
 20
220.310789
 30
0.0
 10
157.449441
 20
220.717295
 30
0.0
  0
SPLINE
  5
256
100
AcDbEntity
  8
0
 62
7
100
AcDbSpline
 70
8
 71
3
 72
8
 73
4
 74
0
 40
0
 40
0
 40
0
 40
0
 40
1
 40
1
 40
1
 40
1
 10
171.536704
 20
235.069221
 30
0.0
 10
172.109315
 20
235.173996
 30
0.0
 10
172.690129
 20
235.248318
 30
0.0
 10
173.277080
 20
235.289778
 30
0.0
  0
SPLINE
  5
257
100
AcDbEntity
  8
0
 62
7
100
AcDbSpline
 70
8
 71
3
 72
8
 73
4
 74
0
 40
0
 40
0
 40
0
 40
0
 40
1
 40
1
 40
1
 40
1
 10
173.277080
 20
235.289778
 30
0.0
 10
173.681099
 20
233.550248
 30
0.0
 10
173.831091
 20
231.938274
 30
0.0
 10
173.754971
 20
230.443802
 30
0.0
  0
SPLINE
  5
258
100
AcDbEntity
  8
0
 62
7
100
AcDbSpline
 70
8
 71
3
 72
8
 73
4
 74
0
 40
0
 40
0
 40
0
 40
0
 40
1
 40
1
 40
1
 40
1
 10
173.754971
 20
230.443802
 30
0.0
 10
174.014315
 20
230.238829
 30
0.0
 10
174.298054
 20
230.061982
 30
0.0
 10
174.605024
 20
229.912280
 30
0.0
  0
SPLINE
  5
259
100
AcDbEntity
  8
0
 62
7
100
AcDbSpline
 70
8
 71
3
 72
8
 73
4
 74
0
 40
0
 40
0
 40
0
 40
0
 40
1
 40
1
 40
1
 40
1
 10
174.605024
 20
229.912280
 30
0.0
 10
175.211687
 20
229.616476
 30
0.0
 10
175.916987
 20
229.472411
 30
0.0
 10
176.720844
 20
229.472411
 30
0.0
  0
SPLINE
  5
25a
100
AcDbEntity
  8
0
 62
7
100
AcDbSpline
 70
8
 71
3
 72
8
 73
4
 74
0
 40
0
 40
0
 40
0
 40
0
 40
1
 40
1
 40
1
 40
1
 10
176.720844
 20
229.472411
 30
0.0
 10
177.486813
 20
229.472411
 30
0.0
 10
178.192112
 20
229.608909
 30
0.0
 10
178.821530
 20
229.881906
 30
0.0
  0
SPLINE
  5
25b
100
AcDbEntity
  8
0
 62
7
100
AcDbSpline
 70
8
 71
3
 72
8
 73
4
 74
0
 40
0
 40
0
 40
0
 40
0
 40
1
 40
1
 40
1
 40
1
 10
178.821530
 20
229.881906
 30
0.0
 10
179.451000
 20
230.154983
 30
0.0
 10
179.981860
 20
230.534104
 30
0.0
 10
180.429297
 20
231.011942
 30
0.0
  0
SPLINE
  5
25c
100
AcDbEntity
  8
0
 62
7
100
AcDbSpline
 70
8
 71
3
 72
8
 73
4
 74
0
 40
0
 40
0
 40
0
 40
0
 40
1
 40
1
 40
1
 40
1
 10
180.429297
 20
231.011942
 30
0.0
 10
180.876760
 20
231.497267
 30
0.0
 10
181.217993
 20
232.073635
 30
0.0
 10
181.453129
 20
232.748561
 30
0.0
  0
SPLINE
  5
25d
100
AcDbEntity
  8
0
 62
7
100
AcDbSpline
 70
8
 71
3
 72
8
 73
4
 74
0
 40
0
 40
0
 40
0
 40
0
 40
1
 40
1
 40
1
 40
1
 10
181.453129
 20
232.748561
 30
0.0
 10
181.688184
 20
233.423566
 30
0.0
 10
181.809522
 20
234.159160
 30
0.0
 10
181.809522
 20
234.955450
 30
0.0
  0
SPLINE
  5
25e
100
AcDbEntity
  8
0
 62
7
100
AcDbSpline
 70
8
 71
3
 72
8
 73
4
 74
0
 40
0
 40
0
 40
0
 40
0
 40
1
 40
1
 40
1
 40
1
 10
181.809522
 20
234.955450
 30
0.0
 10
181.809522
 20
236.616240
 30
0.0
 10
181.324197
 20
237.875180
 30
0.0
 10
180.361061
 20
238.747300
 30
0.0
  0
SPLINE
  5
25f
100
AcDbEntity
  8
0
 62
7
100
AcDbSpline
 70
8
 71
3
 72
8
 73
4
 74
0
 40
0
 40
0
 40
0
 40
0
 40
1
 40
1
 40
1
 40
1
 10
180.361061
 20
238.747300
 30
0.0
 10
179.397898
 20
239.611826
 30
0.0
 10
177.979811
 20
240.044102
 30
0.0
 10
176.099020
 20
240.044102
 30
0.0
  0
LWPOLYLINE
  5
260
100
AcDbEntity
  8
0
 62
7
100
AcDbPolyline
 90
2
 70
0
 10
165.542542
 20
235.069221
 30
0.0
 10
171.536704
 20
235.069221
 30
0.0
  0
SPLINE
  5
261
100
AcDbEntity
  8
0
 62
7
100
AcDbSpline
 70
8
 71
3
 72
8
 73
4
 74
0
 40
0
 40
0
 40
0
 40
0
 40
1
 40
1
 40
1
 40
1
 10
175.477117
 20
245.110000
 30
0.0
 10
178.662304
 20
245.110000
 30
0.0
 10
180.254857
 20
246.558461
 30
0.0
 10
180.254857
 20
249.440250
 30
0.0
  0
SPLINE
  5
262
100
AcDbEntity
  8
0
 62
7
100
AcDbSpline
 70
8
 71
3
 72
8
 73
4
 74
0
 40
0
 40
0
 40
0
 40
0
 40
1
 40
1
 40
1
 40
1
 10
180.254857
 20
249.440250
 30
0.0
 10
180.254857
 20
250.699138
 30
0.0
 10
179.921165
 20
251.662300
 30
0.0
 10
179.261400
 20
252.322065
 30
0.0
  0
SPLINE
  5
263
100
AcDbEntity
  8
0
 62
7
100
AcDbSpline
 70
8
 71
3
 72
8
 73
4
 74
0
 40
0
 40
0
 40
0
 40
0
 40
1
 40
1
 40
1
 40
1
 10
179.261400
 20
252.322065
 30
0.0
 10
178.601635
 20
252.981830
 30
0.0
 10
177.661279
 20
253.307929
 30
0.0
 10
176.432713
 20
253.307929
 30
0.0
  0
SPLINE
  5
264
100
AcDbEntity
  8
0
 62
7
100
AcDbSpline
 70
8
 71
3
 72
8
 73
4
 74
0
 40
0
 40
0
 40
0
 40
0
 40
1
 40
1
 40
1
 40
1
 10
176.432713
 20
253.307929
 30
0.0
 10
173.884564
 20
253.307929
 30
0.0
 10
172.428535
 20
251.669868
 30
0.0
 10
172.072062
 20
248.401284
 30
0.0
  0
LWPOLYLINE
  5
265
100
AcDbEntity
  8
0
 62
7
100
AcDbPolyline
 90
4
 70
0
 10
176.099020
 20
240.044102
 30
0.0
 10
173.543330
 20
240.044102
 30
0.0
 10
173.543330
 20
245.110000
 30
0.0
 10
175.477117
 20
245.110000
 30
0.0
  0
SPLINE
  5
266
100
AcDbEntity
  8
0
 62
7
100
AcDbSpline
 70
8
 71
3
 72
8
 73
4
 74
0
 40
0
 40
0
 40
0
 40
0
 40
1
 40
1
 40
1
 40
1
 10
165.898962
 20
248.401284
 30
0.0
 10
166.073402
 20
250.031779
 30
0.0
 10
166.467737
 20
251.465106
 30
0.0
 10
167.066860
 20
252.708833
 30
0.0
  0
SPLINE
  5
267
100
AcDbEntity
  8
0
 62
7
100
AcDbSpline
 70
8
 71
3
 72
8
 73
4
 74
0
 40
0
 40
0
 40
0
 40
0
 40
1
 40
1
 40
1
 40
1
 10
167.066860
 20
252.708833
 30
0.0
 10
167.665956
 20
253.952560
 30
0.0
 10
168.424357
 20
254.999120
 30
0.0
 10
169.341985
 20
255.840918
 30
0.0
  0
SPLINE
  5
268
100
AcDbEntity
  8
0
 62
7
100
AcDbSpline
 70
8
 71
3
 72
8
 73
4
 74
0
 40
0
 40
0
 40
0
 40
0
 40
1
 40
1
 40
1
 40
1
 10
169.341985
 20
255.840918
 30
0.0
 10
169.500444
 20
255.986254
 30
0.0
 10
169.663057
 20
256.125530
 30
0.0
 10
169.829692
 20
256.258748
 30
0.0
  0
SPLINE
  5
269
100
AcDbEntity
  8
0
 62
7
100
AcDbSpline
 70
8
 71
3
 72
8
 73
4
 74
0
 40
0
 40
0
 40
0
 40
0
 40
1
 40
1
 40
1
 40
1
 10
169.829692
 20
256.258748
 30
0.0
 10
167.458655
 20
257.604154
 30
0.0
 10
165.897216
 20
260.114627
 30
0.0
 10
164.914580
 20
263.303332
 30
0.0
  0
LWPOLYLINE
  5
26a
100
AcDbEntity
  8
0
 62
7
100
AcDbPolyline
 90
2
 70
0
 10
172.072062
 20
248.401284
 30
0.0
 10
165.898962
 20
248.401284
 30
0.0
  0
SPLINE
  5
26b
100
AcDbEntity
  8
0
 62
7
100
AcDbSpline
 70
8
 71
3
 72
8
 73
4
 74
0
 40
0
 40
0
 40
0
 40
0
 40
1
 40
1
 40
1
 40
1
 10
54.832409
 20
57.074594
 30
0.0
 10
44.477517
 20
-5.204513
 30
0.0
 10
76.673975
 20
12.241609
 30
0.0
 10
71.705999
 20
20.250044
 30
0.0
  0
SPLINE
  5
26c
100
AcDbEntity
  8
0
 62
7
100
AcDbSpline
 70
8
 71
3
 72
8
 73
4
 74
0
 40
0
 40
0
 40
0
 40
0
 40
1
 40
1
 40
1
 40
1
 10
71.705999
 20
20.250044
 30
0.0
 10
71.256075
 20
21.511472
 30
0.0
 10
73.228729
 20
21.955786
 30
0.0
 10
74.116327
 20
20.517855
 30
0.0
  0
SPLINE
  5
26d
100
AcDbEntity
  8
0
 62
7
100
AcDbSpline
 70
8
 71
3
 72
8
 73
4
 74
0
 40
0
 40
0
 40
0
 40
0
 40
1
 40
1
 40
1
 40
1
 10
74.116327
 20
20.517855
 30
0.0
 10
77.024442
 20
16.101272
 30
0.0
 10
76.169811
 20
8.489976
 30
0.0
 10
70.768633
 20
6.457553
 30
0.0
  0
LWPOLYLINE
  5
26e
100
AcDbEntity
  8
0
 62
7
100
AcDbPolyline
 90
1
 70
1
 10
164.914580
 20
263.303332
 30
0.0
  0
SPLINE
  5
26f
100
AcDbEntity
  8
0
 62
7
100
AcDbSpline
 70
8
 71
3
 72
8
 73
4
 74
0
 40
0
 40
0
 40
0
 40
0
 40
1
 40
1
 40
1
 40
1
 10
69.447622
 20
6.466284
 30
0.0
 10
69.668999
 20
6.111584
 30
0.0
 10
69.797083
 20
6.106716
 30
0.0
 10
69.797083
 20
5.243698
 30
0.0
  0
SPLINE
  5
270
100
AcDbEntity
  8
0
 62
7
100
AcDbSpline
 70
8
 71
3
 72
8
 73
4
 74
0
 40
0
 40
0
 40
0
 40
0
 40
1
 40
1
 40
1
 40
1
 10
69.797083
 20
5.243698
 30
0.0
 10
69.797083
 20
4.380706
 30
0.0
 10
68.761769
 20
2.931319
 30
0.0
 10
67.484678
 20
2.931319
 30
0.0
  0
SPLINE
  5
271
100
AcDbEntity
  8
0
 62
7
100
AcDbSpline
 70
8
 71
3
 72
8
 73
4
 74
0
 40
0
 40
0
 40
0
 40
0
 40
1
 40
1
 40
1
 40
1
 10
67.484678
 20
2.931319
 30
0.0
 10
66.207614
 20
2.931319
 30
0.0
 10
65.172299
 20
4.375309
 30
0.0
 10
65.172299
 20
5.243698
 30
0.0
  0
SPLINE
  5
272
100
AcDbEntity
  8
0
 62
7
100
AcDbSpline
 70
8
 71
3
 72
8
 73
4
 74
0
 40
0
 40
0
 40
0
 40
0
 40
1
 40
1
 40
1
 40
1
 10
65.172299
 20
5.243698
 30
0.0
 10
65.172299
 20
6.112113
 30
0.0
 10
65.306496
 20
6.131772
 30
0.0
 10
65.537794
 20
6.491817
 30
0.0
  0
LWPOLYLINE
  5
273
100
AcDbEntity
  8
0
 62
7
100
AcDbPolyline
 90
2
 70
0
 10
70.768633
 20
6.457553
 30
0.0
 10
69.447622
 20
6.466284
 30
0.0
  0
SPLINE
  5
274
100
AcDbEntity
  8
0
 62
7
100
AcDbSpline
 70
8
 71
3
 72
8
 73
4
 74
0
 40
0
 40
0
 40
0
 40
0
 40
1
 40
1
 40
1
 40
1
 10
52.048489
 20
2.947538
 30
0.0
 10
48.250872
 20
2.947538
 30
0.0
 10
44.453307
 20
2.929546
 30
0.0
 10
40.655849
 20
2.929546
 30
0.0
  0
SPLINE
  5
275
100
AcDbEntity
  8
0
 62
7
100
AcDbSpline
 70
8
 71
3
 72
8
 73
4
 74
0
 40
0
 40
0
 40
0
 40
0
 40
1
 40
1
 40
1
 40
1
 10
40.655849
 20
2.929546
 30
0.0
 10
40.655849
 20
5.941404
 30
0.0
 10
41.787048
 20
8.536358
 30
0.0
 10
45.197792
 20
8.536358
 30
0.0
  0
LWPOLYLINE
  5
276
100
AcDbEntity
  8
0
 62
7
100
AcDbPolyline
 90
3
 70
0
 10
65.537794
 20
6.491817
 30
0.0
 10
52.048489
 20
6.575610
 30
0.0
 10
52.048489
 20
2.947538
 30
0.0
  0
SPLINE
  5
277
100
AcDbEntity
  8
0
 62
7
100
AcDbSpline
 70
8
 71
3
 72
8
 73
4
 74
0
 40
0
 40
0
 40
0
 40
0
 40
1
 40
1
 40
1
 40
1
 10
49.581964
 20
60.441311
 30
0.0
 10
51.876087
 20
60.441311
 30
0.0
 10
55.518076
 20
60.797175
 30
0.0
 10
54.832409
 20
57.074594
 30
0.0
  0
LWPOLYLINE
  5
278
100
AcDbEntity
  8
0
 62
7
100
AcDbPolyline
 90
6
 70
0
 10
45.197792
 20
8.536358
 30
0.0
 10
45.197792
 20
60.441311
 30
0.0
 10
47.186374
 20
60.441311
 30
0.0
 10
47.186374
 20
31.694358
 30
0.0
 10
49.581964
 20
31.694358
 30
0.0
 10
49.581964
 20
60.441311
 30
0.0
  0
SPLINE
  5
279
100
AcDbEntity
  8
0
 62
7
100
AcDbSpline
 70
8
 71
3
 72
8
 73
4
 74
0
 40
0
 40
0
 40
0
 40
0
 40
1
 40
1
 40
1
 40
1
 10
133.098593
 20
57.074594
 30
0.0
 10
122.743701
 20
-5.204513
 30
0.0
 10
154.940159
 20
12.241609
 30
0.0
 10
149.972183
 20
20.250044
 30
0.0
  0
SPLINE
  5
27a
100
AcDbEntity
  8
0
 62
7
100
AcDbSpline
 70
8
 71
3
 72
8
 73
4
 74
0
 40
0
 40
0
 40
0
 40
0
 40
1
 40
1
 40
1
 40
1
 10
149.972183
 20
20.250044
 30
0.0
 10
149.522259
 20
21.511472
 30
0.0
 10
151.494887
 20
21.955786
 30
0.0
 10
152.382511
 20
20.517855
 30
0.0
  0
SPLINE
  5
27b
100
AcDbEntity
  8
0
 62
7
100
AcDbSpline
 70
8
 71
3
 72
8
 73
4
 74
0
 40
0
 40
0
 40
0
 40
0
 40
1
 40
1
 40
1
 40
1
 10
152.382511
 20
20.517855
 30
0.0
 10
155.290626
 20
16.101272
 30
0.0
 10
154.435995
 20
8.489976
 30
0.0
 10
149.034818
 20
6.457553
 30
0.0
  0
LWPOLYLINE
  5
27c
100
AcDbEntity
  8
0
 62
7
100
AcDbPolyline
 90
1
 70
1
 10
54.832409
 20
57.074594
 30
0.0
  0
SPLINE
  5
27d
100
AcDbEntity
  8
0
 62
7
100
AcDbSpline
 70
8
 71
3
 72
8
 73
4
 74
0
 40
0
 40
0
 40
0
 40
0
 40
1
 40
1
 40
1
 40
1
 10
147.713806
 20
6.466284
 30
0.0
 10
147.935183
 20
6.111584
 30
0.0
 10
148.063267
 20
6.106716
 30
0.0
 10
148.063267
 20
5.243698
 30
0.0
  0
SPLINE
  5
27e
100
AcDbEntity
  8
0
 62
7
100
AcDbSpline
 70
8
 71
3
 72
8
 73
4
 74
0
 40
0
 40
0
 40
0
 40
0
 40
1
 40
1
 40
1
 40
1
 10
148.063267
 20
5.243698
 30
0.0
 10
148.063267
 20
4.380706
 30
0.0
 10
147.027953
 20
2.931319
 30
0.0
 10
145.750862
 20
2.931319
 30
0.0
  0
SPLINE
  5
27f
100
AcDbEntity
  8
0
 62
7
100
AcDbSpline
 70
8
 71
3
 72
8
 73
4
 74
0
 40
0
 40
0
 40
0
 40
0
 40
1
 40
1
 40
1
 40
1
 10
145.750862
 20
2.931319
 30
0.0
 10
144.473771
 20
2.931319
 30
0.0
 10
143.438483
 20
4.375309
 30
0.0
 10
143.438483
 20
5.243698
 30
0.0
  0
SPLINE
  5
280
100
AcDbEntity
  8
0
 62
7
100
AcDbSpline
 70
8
 71
3
 72
8
 73
4
 74
0
 40
0
 40
0
 40
0
 40
0
 40
1
 40
1
 40
1
 40
1
 10
143.438483
 20
5.243698
 30
0.0
 10
143.438483
 20
6.112113
 30
0.0
 10
143.572653
 20
6.131772
 30
0.0
 10
143.803952
 20
6.491817
 30
0.0
  0
LWPOLYLINE
  5
281
100
AcDbEntity
  8
0
 62
7
100
AcDbPolyline
 90
2
 70
0
 10
149.034818
 20
6.457553
 30
0.0
 10
147.713806
 20
6.466284
 30
0.0
  0
SPLINE
  5
282
100
AcDbEntity
  8
0
 62
7
100
AcDbSpline
 70
8
 71
3
 72
8
 73
4
 74
0
 40
0
 40
0
 40
0
 40
0
 40
1
 40
1
 40
1
 40
1
 10
130.314674
 20
2.947538
 30
0.0
 10
126.517056
 20
2.947538
 30
0.0
 10
122.719491
 20
2.929546
 30
0.0
 10
118.922006
 20
2.929546
 30
0.0
  0
SPLINE
  5
283
100
AcDbEntity
  8
0
 62
7
100
AcDbSpline
 70
8
 71
3
 72
8
 73
4
 74
0
 40
0
 40
0
 40
0
 40
0
 40
1
 40
1
 40
1
 40
1
 10
118.922006
 20
2.929546
 30
0.0
 10
118.922006
 20
5.941404
 30
0.0
 10
120.053232
 20
8.536358
 30
0.0
 10
123.463950
 20
8.536358
 30
0.0
  0
LWPOLYLINE
  5
284
100
AcDbEntity
  8
0
 62
7
100
AcDbPolyline
 90
3
 70
0
 10
143.803952
 20
6.491817
 30
0.0
 10
130.314674
 20
6.575610
 30
0.0
 10
130.314674
 20
2.947538
 30
0.0
  0
SPLINE
  5
285
100
AcDbEntity
  8
0
 62
7
100
AcDbSpline
 70
8
 71
3
 72
8
 73
4
 74
0
 40
0
 40
0
 40
0
 40
0
 40
1
 40
1
 40
1
 40
1
 10
127.848122
 20
60.441311
 30
0.0
 10
130.142271
 20
60.441311
 30
0.0
 10
133.784261
 20
60.797175
 30
0.0
 10
133.098593
 20
57.074594
 30
0.0
  0
LWPOLYLINE
  5
286
100
AcDbEntity
  8
0
 62
7
100
AcDbPolyline
 90
6
 70
0
 10
123.463950
 20
8.536358
 30
0.0
 10
123.463950
 20
60.441311
 30
0.0
 10
125.452558
 20
60.441311
 30
0.0
 10
125.452558
 20
31.694358
 30
0.0
 10
127.848122
 20
31.694358
 30
0.0
 10
127.848122
 20
60.441311
 30
0.0
  0
SPLINE
  5
287
100
AcDbEntity
  8
0
 62
7
100
AcDbSpline
 70
8
 71
3
 72
8
 73
4
 74
0
 40
0
 40
0
 40
0
 40
0
 40
1
 40
1
 40
1
 40
1
 10
75.515761
 20
41.445286
 30
0.0
 10
65.160869
 20
103.724393
 30
0.0
 10
97.357327
 20
86.278270
 30
0.0
 10
92.389351
 20
78.269835
 30
0.0
  0
SPLINE
  5
288
100
AcDbEntity
  8
0
 62
7
100
AcDbSpline
 70
8
 71
3
 72
8
 73
4
 74
0
 40
0
 40
0
 40
0
 40
0
 40
1
 40
1
 40
1
 40
1
 10
92.389351
 20
78.269835
 30
0.0
 10
91.939428
 20
77.008408
 30
0.0
 10
93.912081
 20
76.564067
 30
0.0
 10
94.799679
 20
78.002024
 30
0.0
  0
SPLINE
  5
289
100
AcDbEntity
  8
0
 62
7
100
AcDbSpline
 70
8
 71
3
 72
8
 73
4
 74
0
 40
0
 40
0
 40
0
 40
0
 40
1
 40
1
 40
1
 40
1
 10
94.799679
 20
78.002024
 30
0.0
 10
97.707794
 20
82.418608
 30
0.0
 10
96.853163
 20
90.029903
 30
0.0
 10
91.451986
 20
92.062326
 30
0.0
  0
LWPOLYLINE
  5
28a
100
AcDbEntity
  8
0
 62
7
100
AcDbPolyline
 90
1
 70
1
 10
133.098593
 20
57.074594
 30
0.0
  0
SPLINE
  5
28b
100
AcDbEntity
  8
0
 62
7
100
AcDbSpline
 70
8
 71
3
 72
8
 73
4
 74
0
 40
0
 40
0
 40
0
 40
0
 40
1
 40
1
 40
1
 40
1
 10
90.130974
 20
92.053701
 30
0.0
 10
90.352351
 20
92.408401
 30
0.0
 10
90.480436
 20
92.413270
 30
0.0
 10
90.480436
 20
93.276261
 30
0.0
  0
SPLINE
  5
28c
100
AcDbEntity
  8
0
 62
7
100
AcDbSpline
 70
8
 71
3
 72
8
 73
4
 74
0
 40
0
 40
0
 40
0
 40
0
 40
1
 40
1
 40
1
 40
1
 10
90.480436
 20
93.276261
 30
0.0
 10
90.480436
 20
94.139279
 30
0.0
 10
89.445121
 20
95.588667
 30
0.0
 10
88.168030
 20
95.588667
 30
0.0
  0
SPLINE
  5
28d
100
AcDbEntity
  8
0
 62
7
100
AcDbSpline
 70
8
 71
3
 72
8
 73
4
 74
0
 40
0
 40
0
 40
0
 40
0
 40
1
 40
1
 40
1
 40
1
 10
88.168030
 20
95.588667
 30
0.0
 10
86.890966
 20
95.588667
 30
0.0
 10
85.855651
 20
94.144677
 30
0.0
 10
85.855651
 20
93.276261
 30
0.0
  0
SPLINE
  5
28e
100
AcDbEntity
  8
0
 62
7
100
AcDbSpline
 70
8
 71
3
 72
8
 73
4
 74
0
 40
0
 40
0
 40
0
 40
0
 40
1
 40
1
 40
1
 40
1
 10
85.855651
 20
93.276261
 30
0.0
 10
85.855651
 20
92.407872
 30
0.0
 10
85.989848
 20
92.388214
 30
0.0
 10
86.221147
 20
92.028169
 30
0.0
  0
LWPOLYLINE
  5
28f
100
AcDbEntity
  8
0
 62
7
100
AcDbPolyline
 90
2
 70
0
 10
91.451986
 20
92.062326
 30
0.0
 10
90.130974
 20
92.053701
 30
0.0
  0
SPLINE
  5
290
100
AcDbEntity
  8
0
 62
7
100
AcDbSpline
 70
8
 71
3
 72
8
 73
4
 74
0
 40
0
 40
0
 40
0
 40
0
 40
1
 40
1
 40
1
 40
1
 10
72.731842
 20
95.572448
 30
0.0
 10
68.934224
 20
95.572448
 30
0.0
 10
65.136660
 20
95.590519
 30
0.0
 10
61.339201
 20
95.590519
 30
0.0
  0
SPLINE
  5
291
100
AcDbEntity
  8
0
 62
7
100
AcDbSpline
 70
8
 71
3
 72
8
 73
4
 74
0
 40
0
 40
0
 40
0
 40
0
 40
1
 40
1
 40
1
 40
1
 10
61.339201
 20
95.590519
 30
0.0
 10
61.339201
 20
92.578661
 30
0.0
 10
62.470400
 20
89.983680
 30
0.0
 10
65.881144
 20
89.983680
 30
0.0
  0
LWPOLYLINE
  5
292
100
AcDbEntity
  8
0
 62
7
100
AcDbPolyline
 90
3
 70
0
 10
86.221147
 20
92.028169
 30
0.0
 10
72.731842
 20
91.944375
 30
0.0
 10
72.731842
 20
95.572448
 30
0.0
  0
SPLINE
  5
293
100
AcDbEntity
  8
0
 62
7
100
AcDbSpline
 70
8
 71
3
 72
8
 73
4
 74
0
 40
0
 40
0
 40
0
 40
0
 40
1
 40
1
 40
1
 40
1
 10
70.265316
 20
38.078569
 30
0.0
 10
72.559439
 20
38.078569
 30
0.0
 10
76.201429
 20
37.722704
 30
0.0
 10
75.515761
 20
41.445286
 30
0.0
  0
LWPOLYLINE
  5
294
100
AcDbEntity
  8
0
 62
7
100
AcDbPolyline
 90
6
 70
0
 10
65.881144
 20
89.983680
 30
0.0
 10
65.881144
 20
38.078569
 30
0.0
 10
67.869726
 20
38.078569
 30
0.0
 10
67.869726
 20
66.825521
 30
0.0
 10
70.265316
 20
66.825521
 30
0.0
 10
70.265316
 20
38.078569
 30
0.0
  0
SPLINE
  5
295
100
AcDbEntity
  8
0
 62
7
100
AcDbSpline
 70
8
 71
3
 72
8
 73
4
 74
0
 40
0
 40
0
 40
0
 40
0
 40
1
 40
1
 40
1
 40
1
 10
15.994406
 20
76.964831
 30
0.0
 10
5.639514
 20
139.243938
 30
0.0
 10
37.835972
 20
121.797842
 30
0.0
 10
32.867997
 20
113.789407
 30
0.0
  0
SPLINE
  5
296
100
AcDbEntity
  8
0
 62
7
100
AcDbSpline
 70
8
 71
3
 72
8
 73
4
 74
0
 40
0
 40
0
 40
0
 40
0
 40
1
 40
1
 40
1
 40
1
 10
32.867997
 20
113.789407
 30
0.0
 10
32.418073
 20
112.527953
 30
0.0
 10
34.390727
 20
112.083638
 30
0.0
 10
35.278325
 20
113.521569
 30
0.0
  0
SPLINE
  5
297
100
AcDbEntity
  8
0
 62
7
100
AcDbSpline
 70
8
 71
3
 72
8
 73
4
 74
0
 40
0
 40
0
 40
0
 40
0
 40
1
 40
1
 40
1
 40
1
 10
35.278325
 20
113.521569
 30
0.0
 10
38.186439
 20
117.938153
 30
0.0
 10
37.331809
 20
125.549448
 30
0.0
 10
31.930631
 20
127.581898
 30
0.0
  0
LWPOLYLINE
  5
298
100
AcDbEntity
  8
0
 62
7
100
AcDbPolyline
 90
1
 70
1
 10
75.515761
 20
41.445286
 30
0.0
  0
SPLINE
  5
299
100
AcDbEntity
  8
0
 62
7
100
AcDbSpline
 70
8
 71
3
 72
8
 73
4
 74
0
 40
0
 40
0
 40
0
 40
0
 40
1
 40
1
 40
1
 40
1
 10
30.609619
 20
127.573246
 30
0.0
 10
30.830996
 20
127.927947
 30
0.0
 10
30.959081
 20
127.932815
 30
0.0
 10
30.959081
 20
128.795833
 30
0.0
  0
SPLINE
  5
29a
100
AcDbEntity
  8
0
 62
7
100
AcDbSpline
 70
8
 71
3
 72
8
 73
4
 74
0
 40
0
 40
0
 40
0
 40
0
 40
1
 40
1
 40
1
 40
1
 10
30.959081
 20
128.795833
 30
0.0
 10
30.959081
 20
129.658824
 30
0.0
 10
29.923766
 20
131.108212
 30
0.0
 10
28.646702
 20
131.108212
 30
0.0
  0
SPLINE
  5
29b
100
AcDbEntity
  8
0
 62
7
100
AcDbSpline
 70
8
 71
3
 72
8
 73
4
 74
0
 40
0
 40
0
 40
0
 40
0
 40
1
 40
1
 40
1
 40
1
 10
28.646702
 20
131.108212
 30
0.0
 10
27.369611
 20
131.108212
 30
0.0
 10
26.334297
 20
129.664222
 30
0.0
 10
26.334297
 20
128.795833
 30
0.0
  0
SPLINE
  5
29c
100
AcDbEntity
  8
0
 62
7
100
AcDbSpline
 70
8
 71
3
 72
8
 73
4
 74
0
 40
0
 40
0
 40
0
 40
0
 40
1
 40
1
 40
1
 40
1
 10
26.334297
 20
128.795833
 30
0.0
 10
26.334297
 20
127.927418
 30
0.0
 10
26.468493
 20
127.907759
 30
0.0
 10
26.699792
 20
127.547714
 30
0.0
  0
LWPOLYLINE
  5
29d
100
AcDbEntity
  8
0
 62
7
100
AcDbPolyline
 90
2
 70
0
 10
31.930631
 20
127.581898
 30
0.0
 10
30.609619
 20
127.573246
 30
0.0
  0
SPLINE
  5
29e
100
AcDbEntity
  8
0
 62
7
100
AcDbSpline
 70
8
 71
3
 72
8
 73
4
 74
0
 40
0
 40
0
 40
0
 40
0
 40
1
 40
1
 40
1
 40
1
 10
13.210487
 20
131.091993
 30
0.0
 10
9.412870
 20
131.091993
 30
0.0
 10
5.615305
 20
131.110064
 30
0.0
 10
1.817846
 20
131.110064
 30
0.0
  0
SPLINE
  5
29f
100
AcDbEntity
  8
0
 62
7
100
AcDbSpline
 70
8
 71
3
 72
8
 73
4
 74
0
 40
0
 40
0
 40
0
 40
0
 40
1
 40
1
 40
1
 40
1
 10
1.817846
 20
131.110064
 30
0.0
 10
1.817846
 20
128.098206
 30
0.0
 10
2.949046
 20
125.503252
 30
0.0
 10
6.359790
 20
125.503252
 30
0.0
  0
LWPOLYLINE
  5
2a0
100
AcDbEntity
  8
0
 62
7
100
AcDbPolyline
 90
3
 70
0
 10
26.699792
 20
127.547714
 30
0.0
 10
13.210487
 20
127.463920
 30
0.0
 10
13.210487
 20
131.091993
 30
0.0
  0
SPLINE
  5
2a1
100
AcDbEntity
  8
0
 62
7
100
AcDbSpline
 70
8
 71
3
 72
8
 73
4
 74
0
 40
0
 40
0
 40
0
 40
0
 40
1
 40
1
 40
1
 40
1
 10
10.743962
 20
73.598114
 30
0.0
 10
13.038085
 20
73.598114
 30
0.0
 10
16.680074
 20
73.242249
 30
0.0
 10
15.994406
 20
76.964831
 30
0.0
  0
LWPOLYLINE
  5
2a2
100
AcDbEntity
  8
0
 62
7
100
AcDbPolyline
 90
6
 70
0
 10
6.359790
 20
125.503252
 30
0.0
 10
6.359790
 20
73.598114
 30
0.0
 10
8.348371
 20
73.598114
 30
0.0
 10
8.348371
 20
102.345067
 30
0.0
 10
10.743962
 20
102.345067
 30
0.0
 10
10.743962
 20
73.598114
 30
0.0
  0
SPLINE
  5
2a3
100
AcDbEntity
  8
0
 62
7
100
AcDbSpline
 70
8
 71
3
 72
8
 73
4
 74
0
 40
0
 40
0
 40
0
 40
0
 40
1
 40
1
 40
1
 40
1
 10
16.348657
 20
57.074594
 30
0.0
 10
5.993765
 20
-5.204513
 30
0.0
 10
38.190196
 20
12.241609
 30
0.0
 10
33.222221
 20
20.250044
 30
0.0
  0
SPLINE
  5
2a4
100
AcDbEntity
  8
0
 62
7
100
AcDbSpline
 70
8
 71
3
 72
8
 73
4
 74
0
 40
0
 40
0
 40
0
 40
0
 40
1
 40
1
 40
1
 40
1
 10
33.222221
 20
20.250044
 30
0.0
 10
32.772324
 20
21.511472
 30
0.0
 10
34.744951
 20
21.955786
 30
0.0
 10
35.632549
 20
20.517855
 30
0.0
  0
SPLINE
  5
2a5
100
AcDbEntity
  8
0
 62
7
100
AcDbSpline
 70
8
 71
3
 72
8
 73
4
 74
0
 40
0
 40
0
 40
0
 40
0
 40
1
 40
1
 40
1
 40
1
 10
35.632549
 20
20.517855
 30
0.0
 10
38.540690
 20
16.101272
 30
0.0
 10
37.686033
 20
8.489976
 30
0.0
 10
32.284855
 20
6.457553
 30
0.0
  0
LWPOLYLINE
  5
2a6
100
AcDbEntity
  8
0
 62
7
100
AcDbPolyline
 90
1
 70
1
 10
15.994406
 20
76.964831
 30
0.0
  0
SPLINE
  5
2a7
100
AcDbEntity
  8
0
 62
7
100
AcDbSpline
 70
8
 71
3
 72
8
 73
4
 74
0
 40
0
 40
0
 40
0
 40
0
 40
1
 40
1
 40
1
 40
1
 10
30.963870
 20
6.466284
 30
0.0
 10
31.185247
 20
6.111584
 30
0.0
 10
31.313305
 20
6.106716
 30
0.0
 10
31.313305
 20
5.243698
 30
0.0
  0
SPLINE
  5
2a8
100
AcDbEntity
  8
0
 62
7
100
AcDbSpline
 70
8
 71
3
 72
8
 73
4
 74
0
 40
0
 40
0
 40
0
 40
0
 40
1
 40
1
 40
1
 40
1
 10
31.313305
 20
5.243698
 30
0.0
 10
31.313305
 20
4.380706
 30
0.0
 10
30.278017
 20
2.931319
 30
0.0
 10
29.000926
 20
2.931319
 30
0.0
  0
SPLINE
  5
2a9
100
AcDbEntity
  8
0
 62
7
100
AcDbSpline
 70
8
 71
3
 72
8
 73
4
 74
0
 40
0
 40
0
 40
0
 40
0
 40
1
 40
1
 40
1
 40
1
 10
29.000926
 20
2.931319
 30
0.0
 10
27.723835
 20
2.931319
 30
0.0
 10
26.688521
 20
4.375309
 30
0.0
 10
26.688521
 20
5.243698
 30
0.0
  0
SPLINE
  5
2aa
100
AcDbEntity
  8
0
 62
7
100
AcDbSpline
 70
8
 71
3
 72
8
 73
4
 74
0
 40
0
 40
0
 40
0
 40
0
 40
1
 40
1
 40
1
 40
1
 10
26.688521
 20
5.243698
 30
0.0
 10
26.688521
 20
6.112113
 30
0.0
 10
26.822718
 20
6.131772
 30
0.0
 10
27.054016
 20
6.491817
 30
0.0
  0
LWPOLYLINE
  5
2ab
100
AcDbEntity
  8
0
 62
7
100
AcDbPolyline
 90
2
 70
0
 10
32.284855
 20
6.457553
 30
0.0
 10
30.963870
 20
6.466284
 30
0.0
  0
SPLINE
  5
2ac
100
AcDbEntity
  8
0
 62
7
100
AcDbSpline
 70
8
 71
3
 72
8
 73
4
 74
0
 40
0
 40
0
 40
0
 40
0
 40
1
 40
1
 40
1
 40
1
 10
8.702596
 20
2.947538
 30
0.0
 10
6.554205
 20
2.947538
 30
0.0
 10
4.345146
 20
2.929546
 30
0.0
 10
2.172070
 20
2.929546
 30
0.0
  0
SPLINE
  5
2ad
100
AcDbEntity
  8
0
 62
7
100
AcDbSpline
 70
8
 71
3
 72
8
 73
4
 74
0
 40
0
 40
0
 40
0
 40
0
 40
1
 40
1
 40
1
 40
1
 10
2.172070
 20
2.929546
 30
0.0
 10
2.172070
 20
5.865971
 30
0.0
 10
3.251491
 20
8.536358
 30
0.0
 10
6.714014
 20
8.536358
 30
0.0
  0
LWPOLYLINE
  5
2ae
100
AcDbEntity
  8
0
 62
7
100
AcDbPolyline
 90
7
 70
0
 10
27.054016
 20
6.491817
 30
0.0
 10
13.564738
 20
6.575610
 30
0.0
 10
13.564738
 20
2.947538
 30
0.0
 10
11.098186
 20
2.947538
 30
0.0
 10
11.098186
 20
31.694464
 30
0.0
 10
8.702596
 20
31.694464
 30
0.0
 10
8.702596
 20
2.947538
 30
0.0
  0
SPLINE
  5
2af
100
AcDbEntity
  8
0
 62
7
100
AcDbSpline
 70
8
 71
3
 72
8
 73
4
 74
0
 40
0
 40
0
 40
0
 40
0
 40
1
 40
1
 40
1
 40
1
 10
6.714014
 20
60.441311
 30
0.0
 10
9.329182
 20
60.441311
 30
0.0
 10
17.216993
 20
61.789045
 30
0.0
 10
16.348657
 20
57.074594
 30
0.0
  0
LWPOLYLINE
  5
2b0
100
AcDbEntity
  8
0
 62
7
100
AcDbPolyline
 90
2
 70
0
 10
6.714014
 20
8.536358
 30
0.0
 10
6.714014
 20
60.441311
 30
0.0
  0
SPLINE
  5
2b1
100
AcDbEntity
  8
0
 62
7
100
AcDbSpline
 70
8
 71
3
 72
8
 73
4
 74
0
 40
0
 40
0
 40
0
 40
0
 40
1
 40
1
 40
1
 40
1
 10
94.614815
 20
57.074594
 30
0.0
 10
84.259923
 20
-5.204513
 30
0.0
 10
116.456381
 20
12.241609
 30
0.0
 10
111.488405
 20
20.250044
 30
0.0
  0
SPLINE
  5
2b2
100
AcDbEntity
  8
0
 62
7
100
AcDbSpline
 70
8
 71
3
 72
8
 73
4
 74
0
 40
0
 40
0
 40
0
 40
0
 40
1
 40
1
 40
1
 40
1
 10
111.488405
 20
20.250044
 30
0.0
 10
111.038481
 20
21.511472
 30
0.0
 10
113.011135
 20
21.955786
 30
0.0
 10
113.898733
 20
20.517855
 30
0.0
  0
SPLINE
  5
2b3
100
AcDbEntity
  8
0
 62
7
100
AcDbSpline
 70
8
 71
3
 72
8
 73
4
 74
0
 40
0
 40
0
 40
0
 40
0
 40
1
 40
1
 40
1
 40
1
 10
113.898733
 20
20.517855
 30
0.0
 10
116.806848
 20
16.101272
 30
0.0
 10
115.952217
 20
8.489976
 30
0.0
 10
110.551039
 20
6.457553
 30
0.0
  0
LWPOLYLINE
  5
2b4
100
AcDbEntity
  8
0
 62
7
100
AcDbPolyline
 90
1
 70
1
 10
16.348657
 20
57.074594
 30
0.0
  0
SPLINE
  5
2b5
100
AcDbEntity
  8
0
 62
7
100
AcDbSpline
 70
8
 71
3
 72
8
 73
4
 74
0
 40
0
 40
0
 40
0
 40
0
 40
1
 40
1
 40
1
 40
1
 10
109.230028
 20
6.466284
 30
0.0
 10
109.451405
 20
6.111584
 30
0.0
 10
109.579489
 20
6.106716
 30
0.0
 10
109.579489
 20
5.243698
 30
0.0
  0
SPLINE
  5
2b6
100
AcDbEntity
  8
0
 62
7
100
AcDbSpline
 70
8
 71
3
 72
8
 73
4
 74
0
 40
0
 40
0
 40
0
 40
0
 40
1
 40
1
 40
1
 40
1
 10
109.579489
 20
5.243698
 30
0.0
 10
109.579489
 20
4.380706
 30
0.0
 10
108.544175
 20
2.931319
 30
0.0
 10
107.267110
 20
2.931319
 30
0.0
  0
SPLINE
  5
2b7
100
AcDbEntity
  8
0
 62
7
100
AcDbSpline
 70
8
 71
3
 72
8
 73
4
 74
0
 40
0
 40
0
 40
0
 40
0
 40
1
 40
1
 40
1
 40
1
 10
107.267110
 20
2.931319
 30
0.0
 10
105.990020
 20
2.931319
 30
0.0
 10
104.954705
 20
4.375309
 30
0.0
 10
104.954705
 20
5.243698
 30
0.0
  0
SPLINE
  5
2b8
100
AcDbEntity
  8
0
 62
7
100
AcDbSpline
 70
8
 71
3
 72
8
 73
4
 74
0
 40
0
 40
0
 40
0
 40
0
 40
1
 40
1
 40
1
 40
1
 10
104.954705
 20
5.243698
 30
0.0
 10
104.954705
 20
6.112113
 30
0.0
 10
105.088902
 20
6.131772
 30
0.0
 10
105.320200
 20
6.491817
 30
0.0
  0
LWPOLYLINE
  5
2b9
100
AcDbEntity
  8
0
 62
7
100
AcDbPolyline
 90
2
 70
0
 10
110.551039
 20
6.457553
 30
0.0
 10
109.230028
 20
6.466284
 30
0.0
  0
SPLINE
  5
2ba
100
AcDbEntity
  8
0
 62
7
100
AcDbSpline
 70
8
 71
3
 72
8
 73
4
 74
0
 40
0
 40
0
 40
0
 40
0
 40
1
 40
1
 40
1
 40
1
 10
86.968780
 20
2.947538
 30
0.0
 10
84.820390
 20
2.947538
 30
0.0
 10
82.611330
 20
2.929546
 30
0.0
 10
80.438255
 20
2.929546
 30
0.0
  0
SPLINE
  5
2bb
100
AcDbEntity
  8
0
 62
7
100
AcDbSpline
 70
8
 71
3
 72
8
 73
4
 74
0
 40
0
 40
0
 40
0
 40
0
 40
1
 40
1
 40
1
 40
1
 10
80.438255
 20
2.929546
 30
0.0
 10
80.438255
 20
5.865971
 30
0.0
 10
81.517649
 20
8.536358
 30
0.0
 10
84.980198
 20
8.536358
 30
0.0
  0
LWPOLYLINE
  5
2bc
100
AcDbEntity
  8
0
 62
7
100
AcDbPolyline
 90
7
 70
0
 10
105.320200
 20
6.491817
 30
0.0
 10
91.830895
 20
6.575610
 30
0.0
 10
91.830895
 20
2.947538
 30
0.0
 10
89.364370
 20
2.947538
 30
0.0
 10
89.364370
 20
31.694464
 30
0.0
 10
86.968780
 20
31.694464
 30
0.0
 10
86.968780
 20
2.947538
 30
0.0
  0
SPLINE
  5
2bd
100
AcDbEntity
  8
0
 62
7
100
AcDbSpline
 70
8
 71
3
 72
8
 73
4
 74
0
 40
0
 40
0
 40
0
 40
0
 40
1
 40
1
 40
1
 40
1
 10
84.980198
 20
60.441311
 30
0.0
 10
87.595366
 20
60.441311
 30
0.0
 10
95.483151
 20
61.789045
 30
0.0
 10
94.614815
 20
57.074594
 30
0.0
  0
LWPOLYLINE
  5
2be
100
AcDbEntity
  8
0
 62
7
100
AcDbPolyline
 90
2
 70
0
 10
84.980198
 20
8.536358
 30
0.0
 10
84.980198
 20
60.441311
 30
0.0
  0
SPLINE
  5
2bf
100
AcDbEntity
  8
0
 62
7
100
AcDbSpline
 70
8
 71
3
 72
8
 73
4
 74
0
 40
0
 40
0
 40
0
 40
0
 40
1
 40
1
 40
1
 40
1
 10
37.032009
 20
41.445286
 30
0.0
 10
26.677117
 20
103.724393
 30
0.0
 10
58.873549
 20
86.278270
 30
0.0
 10
53.905573
 20
78.269835
 30
0.0
  0
SPLINE
  5
2c0
100
AcDbEntity
  8
0
 62
7
100
AcDbSpline
 70
8
 71
3
 72
8
 73
4
 74
0
 40
0
 40
0
 40
0
 40
0
 40
1
 40
1
 40
1
 40
1
 10
53.905573
 20
78.269835
 30
0.0
 10
53.455676
 20
77.008408
 30
0.0
 10
55.428303
 20
76.564067
 30
0.0
 10
56.315901
 20
78.002024
 30
0.0
  0
SPLINE
  5
2c1
100
AcDbEntity
  8
0
 62
7
100
AcDbSpline
 70
8
 71
3
 72
8
 73
4
 74
0
 40
0
 40
0
 40
0
 40
0
 40
1
 40
1
 40
1
 40
1
 10
56.315901
 20
78.002024
 30
0.0
 10
59.224042
 20
82.418608
 30
0.0
 10
58.369385
 20
90.029903
 30
0.0
 10
52.968208
 20
92.062326
 30
0.0
  0
LWPOLYLINE
  5
2c2
100
AcDbEntity
  8
0
 62
7
100
AcDbPolyline
 90
1
 70
1
 10
94.614815
 20
57.074594
 30
0.0
  0
SPLINE
  5
2c3
100
AcDbEntity
  8
0
 62
7
100
AcDbSpline
 70
8
 71
3
 72
8
 73
4
 74
0
 40
0
 40
0
 40
0
 40
0
 40
1
 40
1
 40
1
 40
1
 10
51.647222
 20
92.053701
 30
0.0
 10
51.868599
 20
92.408401
 30
0.0
 10
51.996657
 20
92.413270
 30
0.0
 10
51.996657
 20
93.276261
 30
0.0
  0
SPLINE
  5
2c4
100
AcDbEntity
  8
0
 62
7
100
AcDbSpline
 70
8
 71
3
 72
8
 73
4
 74
0
 40
0
 40
0
 40
0
 40
0
 40
1
 40
1
 40
1
 40
1
 10
51.996657
 20
93.276261
 30
0.0
 10
51.996657
 20
94.139279
 30
0.0
 10
50.961369
 20
95.588667
 30
0.0
 10
49.684279
 20
95.588667
 30
0.0
  0
SPLINE
  5
2c5
100
AcDbEntity
  8
0
 62
7
100
AcDbSpline
 70
8
 71
3
 72
8
 73
4
 74
0
 40
0
 40
0
 40
0
 40
0
 40
1
 40
1
 40
1
 40
1
 10
49.684279
 20
95.588667
 30
0.0
 10
48.407188
 20
95.588667
 30
0.0
 10
47.371873
 20
94.144677
 30
0.0
 10
47.371873
 20
93.276261
 30
0.0
  0
SPLINE
  5
2c6
100
AcDbEntity
  8
0
 62
7
100
AcDbSpline
 70
8
 71
3
 72
8
 73
4
 74
0
 40
0
 40
0
 40
0
 40
0
 40
1
 40
1
 40
1
 40
1
 10
47.371873
 20
93.276261
 30
0.0
 10
47.371873
 20
92.407872
 30
0.0
 10
47.506070
 20
92.388214
 30
0.0
 10
47.737369
 20
92.028169
 30
0.0
  0
LWPOLYLINE
  5
2c7
100
AcDbEntity
  8
0
 62
7
100
AcDbPolyline
 90
2
 70
0
 10
52.968208
 20
92.062326
 30
0.0
 10
51.647222
 20
92.053701
 30
0.0
  0
SPLINE
  5
2c8
100
AcDbEntity
  8
0
 62
7
100
AcDbSpline
 70
8
 71
3
 72
8
 73
4
 74
0
 40
0
 40
0
 40
0
 40
0
 40
1
 40
1
 40
1
 40
1
 10
29.385948
 20
95.572448
 30
0.0
 10
27.237558
 20
95.572448
 30
0.0
 10
25.028499
 20
95.590519
 30
0.0
 10
22.855423
 20
95.590519
 30
0.0
  0
SPLINE
  5
2c9
100
AcDbEntity
  8
0
 62
7
100
AcDbSpline
 70
8
 71
3
 72
8
 73
4
 74
0
 40
0
 40
0
 40
0
 40
0
 40
1
 40
1
 40
1
 40
1
 10
22.855423
 20
95.590519
 30
0.0
 10
22.855423
 20
92.654094
 30
0.0
 10
23.934843
 20
89.983680
 30
0.0
 10
27.397366
 20
89.983680
 30
0.0
  0
LWPOLYLINE
  5
2ca
100
AcDbEntity
  8
0
 62
7
100
AcDbPolyline
 90
7
 70
0
 10
47.737369
 20
92.028169
 30
0.0
 10
34.248064
 20
91.944375
 30
0.0
 10
34.248064
 20
95.572448
 30
0.0
 10
31.781538
 20
95.572448
 30
0.0
 10
31.781538
 20
66.825521
 30
0.0
 10
29.385948
 20
66.825521
 30
0.0
 10
29.385948
 20
95.572448
 30
0.0
  0
SPLINE
  5
2cb
100
AcDbEntity
  8
0
 62
7
100
AcDbSpline
 70
8
 71
3
 72
8
 73
4
 74
0
 40
0
 40
0
 40
0
 40
0
 40
1
 40
1
 40
1
 40
1
 10
27.397366
 20
38.078569
 30
0.0
 10
30.012534
 20
38.078569
 30
0.0
 10
37.900319
 20
36.730834
 30
0.0
 10
37.032009
 20
41.445286
 30
0.0
  0
LWPOLYLINE
  5
2cc
100
AcDbEntity
  8
0
 62
7
100
AcDbPolyline
 90
2
 70
0
 10
27.397366
 20
89.983680
 30
0.0
 10
27.397366
 20
38.078569
 30
0.0
  0
SPLINE
  5
2cd
100
AcDbEntity
  8
0
 62
7
100
AcDbSpline
 70
8
 71
3
 72
8
 73
4
 74
0
 40
0
 40
0
 40
0
 40
0
 40
1
 40
1
 40
1
 40
1
 10
115.298167
 20
41.445286
 30
0.0
 10
104.943275
 20
103.724393
 30
0.0
 10
137.139733
 20
86.278270
 30
0.0
 10
132.171758
 20
78.269835
 30
0.0
  0
SPLINE
  5
2ce
100
AcDbEntity
  8
0
 62
7
100
AcDbSpline
 70
8
 71
3
 72
8
 73
4
 74
0
 40
0
 40
0
 40
0
 40
0
 40
1
 40
1
 40
1
 40
1
 10
132.171758
 20
78.269835
 30
0.0
 10
131.721834
 20
77.008408
 30
0.0
 10
133.694488
 20
76.564067
 30
0.0
 10
134.582085
 20
78.002024
 30
0.0
  0
SPLINE
  5
2cf
100
AcDbEntity
  8
0
 62
7
100
AcDbSpline
 70
8
 71
3
 72
8
 73
4
 74
0
 40
0
 40
0
 40
0
 40
0
 40
1
 40
1
 40
1
 40
1
 10
134.582085
 20
78.002024
 30
0.0
 10
137.490200
 20
82.418608
 30
0.0
 10
136.635569
 20
90.029903
 30
0.0
 10
131.234392
 20
92.062326
 30
0.0
  0
LWPOLYLINE
  5
2d0
100
AcDbEntity
  8
0
 62
7
100
AcDbPolyline
 90
1
 70
1
 10
37.032009
 20
41.445286
 30
0.0
  0
SPLINE
  5
2d1
100
AcDbEntity
  8
0
 62
7
100
AcDbSpline
 70
8
 71
3
 72
8
 73
4
 74
0
 40
0
 40
0
 40
0
 40
0
 40
1
 40
1
 40
1
 40
1
 10
129.913380
 20
92.053701
 30
0.0
 10
130.134757
 20
92.408401
 30
0.0
 10
130.262842
 20
92.413270
 30
0.0
 10
130.262842
 20
93.276261
 30
0.0
  0
SPLINE
  5
2d2
100
AcDbEntity
  8
0
 62
7
100
AcDbSpline
 70
8
 71
3
 72
8
 73
4
 74
0
 40
0
 40
0
 40
0
 40
0
 40
1
 40
1
 40
1
 40
1
 10
130.262842
 20
93.276261
 30
0.0
 10
130.262842
 20
94.139279
 30
0.0
 10
129.227527
 20
95.588667
 30
0.0
 10
127.950436
 20
95.588667
 30
0.0
  0
SPLINE
  5
2d3
100
AcDbEntity
  8
0
 62
7
100
AcDbSpline
 70
8
 71
3
 72
8
 73
4
 74
0
 40
0
 40
0
 40
0
 40
0
 40
1
 40
1
 40
1
 40
1
 10
127.950436
 20
95.588667
 30
0.0
 10
126.673372
 20
95.588667
 30
0.0
 10
125.638057
 20
94.144677
 30
0.0
 10
125.638057
 20
93.276261
 30
0.0
  0
SPLINE
  5
2d4
100
AcDbEntity
  8
0
 62
7
100
AcDbSpline
 70
8
 71
3
 72
8
 73
4
 74
0
 40
0
 40
0
 40
0
 40
0
 40
1
 40
1
 40
1
 40
1
 10
125.638057
 20
93.276261
 30
0.0
 10
125.638057
 20
92.407872
 30
0.0
 10
125.772254
 20
92.388214
 30
0.0
 10
126.003553
 20
92.028169
 30
0.0
  0
LWPOLYLINE
  5
2d5
100
AcDbEntity
  8
0
 62
7
100
AcDbPolyline
 90
2
 70
0
 10
131.234392
 20
92.062326
 30
0.0
 10
129.913380
 20
92.053701
 30
0.0
  0
SPLINE
  5
2d6
100
AcDbEntity
  8
0
 62
7
100
AcDbSpline
 70
8
 71
3
 72
8
 73
4
 74
0
 40
0
 40
0
 40
0
 40
0
 40
1
 40
1
 40
1
 40
1
 10
107.652132
 20
95.572448
 30
0.0
 10
105.503742
 20
95.572448
 30
0.0
 10
103.294683
 20
95.590519
 30
0.0
 10
101.121607
 20
95.590519
 30
0.0
  0
SPLINE
  5
2d7
100
AcDbEntity
  8
0
 62
7
100
AcDbSpline
 70
8
 71
3
 72
8
 73
4
 74
0
 40
0
 40
0
 40
0
 40
0
 40
1
 40
1
 40
1
 40
1
 10
101.121607
 20
95.590519
 30
0.0
 10
101.121607
 20
92.654094
 30
0.0
 10
102.201001
 20
89.983680
 30
0.0
 10
105.663550
 20
89.983680
 30
0.0
  0
LWPOLYLINE
  5
2d8
100
AcDbEntity
  8
0
 62
7
100
AcDbPolyline
 90
7
 70
0
 10
126.003553
 20
92.028169
 30
0.0
 10
112.514248
 20
91.944375
 30
0.0
 10
112.514248
 20
95.572448
 30
0.0
 10
110.047723
 20
95.572448
 30
0.0
 10
110.047723
 20
66.825521
 30
0.0
 10
107.652132
 20
66.825521
 30
0.0
 10
107.652132
 20
95.572448
 30
0.0
  0
SPLINE
  5
2d9
100
AcDbEntity
  8
0
 62
7
100
AcDbSpline
 70
8
 71
3
 72
8
 73
4
 74
0
 40
0
 40
0
 40
0
 40
0
 40
1
 40
1
 40
1
 40
1
 10
105.663550
 20
38.078569
 30
0.0
 10
108.278718
 20
38.078569
 30
0.0
 10
116.166503
 20
36.730834
 30
0.0
 10
115.298167
 20
41.445286
 30
0.0
  0
LWPOLYLINE
  5
2da
100
AcDbEntity
  8
0
 62
7
100
AcDbPolyline
 90
2
 70
0
 10
105.663550
 20
89.983680
 30
0.0
 10
105.663550
 20
38.078569
 30
0.0
  0
LWPOLYLINE
  5
2db
100
AcDbEntity
  8
0
 62
7
100
AcDbPolyline
 90
1
 70
1
 10
115.298167
 20
41.445286
 30
0.0
  0
ENDSEC
  0
SECTION
  2
OBJECTS
  0
DICTIONARY
  5
C
330
0
100
AcDbDictionary
  3
ACAD_GROUP
350
D
  3
ACAD_MLINESTYLE
350
17
  0
DICTIONARY
  5
D
330
C
100
AcDbDictionary
  0
DICTIONARY
  5
1A
330
C
100
AcDbDictionary
  0
DICTIONARY
  5
17
330
C
100
AcDbDictionary
  3
STANDARD
350
18
  0
DICTIONARY
  5
19
330
C
100
AcDbDictionary
  0
ENDSEC
  0
EOF
